» » »

Kate Mcgill, Melancholy Melody Tabs (ver.1)

Artists:  A B C D E F G H I J K L M N O P Q R S T U V W X Y Z # 

Melancholy Melody Tabs (ver.1)

Kate Mcgill Tabs
Rating:
0/5 (0 votes)
Hard to play? Try these video lessons and learn fast.
                So here are the right Tabs the other one was disordered ;)

Capo on 1

Intro
E------------------------------------------------------------------------------|
B------------------------------------------------------------------------------|
G-------10-------10----------------10----------10-------------10-------10------|
D----10-------10--------10------10----------10-------10----10-------10---------|
A--8--------8--------8---------------------8--------8--------------8-----------|
E----------------------------0----------------------------0--------------------|

E--------------------------------------|
B--------------------------------------|
G--------------10-------10-------------|
D-----10----10-------10------10--------|
A---8--------------8--------8----------|
E---------0----------------------------|

Verse:
E-------------------------------------------------------------------------------|
B-------------------------------------------------------------------------------|
G-------10-------10----------------10----------10-------------10-------10-------|
D----10-------10--------10------10----------10-------10----10-------10----------|
A-----------8--------8---------------------8--------8--------------8------------|
E---0-------------------------0----------------------------0--------------------|

       You     didn´t    want    me     in      your    life          and       that´s     fine
E--------------------------------------|
B--------------------------------------|
G--------------10-------10-------------|
D-----10----10-------10------10--------|
A---8--------------8--------8----------|
E---------0----------------------------|

E-------------------------------------------------------------------------------|
B-------------------------------------------------------------------------------|
G-------10-------10----------------10----------10---------------10-------10-----|
D----10-------10--------10------10----------10-------10------10-------10--------|
A-----------8--------8-----------------------------------------------8----------|
E---0-------------------------8--------------8--------8------0------------------|
      But     you´ve   got    love         why          did
E--------------------------------------|
B--------------------------------------|
G--------------10-------10-------------|
D-----10----10-------10------10--------|
A---8--------------8--------8----------|
E---------0----------------------------|
              you   take  mine


[ ...and so on... ]

E--------------------------------------------------------------------------|
B--------------------------------------------------------------------------|
G------7------7---------10-----10-----------10-----10------------10--------|
D----7------7-----7---10----10-----10----10-----10-----10----10------------|
A--5------5-----5-----------------------8------8------8--------------------|
E--------------------8-----8------8-------------------------0--------0-----|
but  you´re    the            only                      person              that i can       stand

E-------------------------------------------------------------------------------|
B-------------------------------------------------------------------------------|
G-----10------------7----7---------10---10-----------10-----10------------------|
D---10------10-----7----7---7----10---10----10----10-----10-----10--------------|
A---------8------5-----5---5---------------------8------8------8----------------|
E-------------------------------8-----8-----8------------------------0----------|
 and talk to   for    longer                                      than this .

Refrain:
E------------------------------------------------------------------------------|
B------------------------------------------------------------------------------|
G-----10----10-----------10----10----------7---7-----------10-----10-----------|
D---10----10-----10---10-----10----10----7----7---7-----10-----10----10--------|
A--8-----8-----8-------------------------5----5---5----------------------------|
E--------------------8-------8-----8-------------------8-------8------8--------|
Please stop                      playing that               Melancholy Melody on
E-----------------------------------------------------------------------------------|
B-----------------------------------------------------------------------------------|
G--------10-----10-----------10-----10------------10-----10----------10--10---------|
D------10-----10----10-----10-----10-----10-----10-----10----10---10---10---10------|
A-----8-----8------8-----------------------------------8-----8----------------------|
E-------------------------8-------8------8----0-------------------0-----0----0------|
   my                          heart       strings .


Lyrics:
you didn’t want me in your life and that’s fine
but you’ve got love why did you take mine?
you didn’t want to waste a fraction more of your time
on my endless reason and rhymes

but you’re the only person that i can stand to talk to for longer than this

please stop playing that melancholy melody on my heart strings
;cause i’ve been playing that melancholy melody on my heart and it sings
oh oh oh oh

you’re a little messed up with the way you’re thinking
it’s getting worse everytime your big eyes are blinking
remember when i told you about our boat sinking?
well i think you’re the only one left

and yet you’re the only person that i can stand to talk to for longer than this

please stop playing that melancholy melody on my heart strings
’cause i’ve been playing that melancholy melody on my heart and it sings
oh oh oh oh
            

comments powered by Disqus
↑ Back to top | Kate Mcgill Tabs for Melancholy Melody. Lyrics for acoustic guitar and electric guitar. Tablatures and chords are parodies/interpretations of the original songs. You may use it for private study, scholarship, research or language learning purposes only