» » »

I Dont Wanna Live Here On This Earth With You Tabs (ver.1)

Artists:  A B C D E F G H I J K L M N O P Q R S T U V W X Y Z # 

I Dont Wanna Live Here On This Earth With You Tabs (ver.1)

Kate Mcgill
Rating:
0/5 (0 votes)

Hard to play? Try these video lessons and learn fast.
                
Drop D tuning
No capo

Note: This won't be exactly the right way Kate plays it, but I think I've got the right 
notes, so play around with it if you like, but this is how I personally play it :)

Intro/verse/pre chorus
e-----------|----------|----------|---------|
B---3-------|----3-----|---3------|---3-----|
G--------2--|---------2|-------0--|-------2-|
D-----------|----------|----------|---------|
A-2----2----|-0----0---|----------|---------|
D-----------|----------|-5---5----|-0---0---|
   (x2)       (x2)        (x2)       (x2)
I feel a     war coming    i can    see it
                                    up ahead     etc etc - up to 'now they
only feel the heat'


chorus (if the love's not worth the hurt..)
e-----------|----------|----------|---------|
B---3-------|----3-----|---3------|---3-----|
G--------2--|---------2|-------0--|-------0-|
D-----------|----------|----------|---------|
A-2----2----|-0----0---|----------|---------|
D-----------|----------|-5---5----|-5---5---|
                                                   x2
e-----------|----------|----------|---------|
B---3-------|----3-----|---3------|---3-----|
G--------2--|---------2|-------2--|-------2-|
D-----------|----------|----------|---------|
A-2----2----|-0----0---|----------|---------|
D-----------|----------|-0---0----|-0---0---|



bridge (I'm not too sure on this part)
e-----------|----------|----------|---------|
B---3-------|----3-----|---3------|---3-----|
G--------2--|---------2|-------2--|-------0-|
D-----------|----------|----------|---------|   x2
A-2----2----|-0----0---|----------|---------|
D-----------|----------|-0---0----|-5---5---|
    x2          x2        x2          x2

e-----------|----------|----------|---------|
B---3-------|----3-----|---3------|---3-----|
G--------2--|---------2|-------2--|-------0-|
D-----------|----------|----------|---------|
A-2----2----|-0----0---|----------|---------|
D-----------|----------|-4---4----|-5---5---|
    x2         x2          x4        x4

e-----------|----------|----------|
B---3-------|----3-----|-3~-------|
G--------2--|---------2|----------|
D-----------|----------|----------|
A-2----2----|-0----0---|----------|
D-----------|----------|-5~-------|
(but I'm never sitting comfortably)

pre chorus
chorus

finish on 0002xx


enjoy x
            
Hard to play? Try these video lessons and learn fast. | Correct




comments powered by Disqus
↑ Back to top | Tablatures and chords are parodies/interpretations of the original songs. You may use it for private study, scholarship, research or language learning purposes only