» » »

Wonderful Crazy Chords (ver.1)

Artists:  A B C D E F G H I J K L M N O P Q R S T U V W X Y Z # 

Wonderful Crazy Chords (ver.1)

Katelyn Tarver
Rating:
4/5 (2 votes)

Hard to play? Try these video lessons and learn fast.
                Katelyn Tarver

Chords used:
A -    x02220
D -    xx0232
F#m -  244222
E -    022100
A/C# - x4222x
Bm -   x24432
G#m -  466444

Intro:A-D-F#m-D

Guitar 2: x means palm mute
e|-----------------------------------------------------------------|
B|-----------------------------------------------------------------|
G|-----------------------------------------------------------------|
D|-7-----6---7-----7-----6---7-----7-----6---7-----7-----6---7-----|
A|---0-0---0---0-0---5-5---5---5-5---9-9---9---9-9---5-5---5---5-5-|
E|-----------------------------------------------------------------|
     x x   x   x x   x x   x   x x   x x   x   x x   x x   x   x x

Guitar 3: Will enter at 0:18
e|-12(x16)----|
B|-10(x16)----|
G|--9(x16)----|
D|------------|
A|------------|
E|------------|


Verse 1:
        A                       D
Welcome to a new day Don't know whats on the way
        F#m                D             A
But whatever it is I'll be ready On your mark get set go
           D                          F#m                   D
Here's the show and the road But with you it's a load I can carry
              A/C#           D             F#m          E
And with each breath I would take it Every moment gonna make it


Chorus 1:
       A              D       F#m                 D
It's a wonderful crazy It's a beautiful out of control
       A           D      F#m                  E
Kinda scary amazing But I don't really mind at all
              A/C#             D
It's like I'm falling, flying, laughing, crying
        A/C#           Bm          D              E
Hanging on and letting go Cause my life' so wonderful
A
crazy crazy


Verse 2:
     A                         D
Some days get intense And breakdown my defense
        F#m                     D        A
But I'm here and I'm not giving up Gonna take in the sights
       D                      F#m                    D
On the ride of my life Living just to survive's not enough
        A/C#       D             F#m      E
So much love to discover I don't need any other


Guitar 3:
e|----------------------------------------------|
B|----------------------------------------------|
G|-----7/9~-------7/9--9/11--6h7p6h7p6h7p6h7----|
D|-6h7--------6h7----------------------------9~-| (x2)
A|----------------------------------------------|
E|----------------------------------------------|


(Repeat Chorus 1 except last line)

Bridge:
F#m            Abm           A/C#
Crazy, And I'm willing but embracing
         D               Bm
that I'm feeling of the strange and the new
       D             E
All my love found in you


Chorus 2:
       A              D       F#m                 D
It's a wonderful crazy It's a beautiful out of control
       E           F#m    A/C#                 E
Kinda scary amazing But I don't really mind at all
              A/C#             D
It's like I'm falling, flying, laughing, crying
        A/C#           Bm          D              E
Hanging on and letting go Cause my life' so wonderful


(Repeat Chorus 1 except last line)

     D F#m  D A D F#m D(Hold)
crazy crazy
            
Hard to play? Try these video lessons and learn fast. | Correct




comments powered by Disqus
↑ Back to top | Tablatures and chords are parodies/interpretations of the original songs. You may use it for private study, scholarship, research or language learning purposes only