» » »

Kate Bush, Kashka From Baghdad Bass tabs (ver.1)

Artists:  A B C D E F G H I J K L M N O P Q R S T U V W X Y Z # 

Kashka From Baghdad Bass tabs (ver.1)

Kate Bush Tabs
 Rating:
4/5 (4 votes)
Kashka From Baghdad lessons Tabs too difficult? Try these video lessons and learn fast
1
                -------------------------------------------------------------------------------
-------------------------------------------------------------------------------

Bracketed notes are not there every time, but are decorations to listen out for!

Main riff

G|----7----5----3----------------7----5----3-----------------------------------|
D|--9----7----5----3-0---------9----7----5----3-0------------------------------|
A|-----------------------------------------------------------------------------|
E|-----------------------------------------------------------------------------|


Verse version 1

G|----------5---------------------------(7)-----(7)-----------------------------|
D|--------3---5-----5\4\3------3--------------------------7--7------------------|
A|--5-----------------------------3--5------(5)-------------------7-------------|
E|---------------------------------------------------------------------5--------|

G|---------------------------------------------------------------------------|
D|---------5-----------------------------------------------------------------|
A|------------5--------------------------------------------------------------|
E|--3------------------------------------------------------------------------|

Verse version 2
					                                     (trill)
G|----------7----------7-6-5---------------------------------------------------|
D|--------------5--5------------5-------------------------7/8\7----------------|
A|--5------------------------------3---3/5-------------------------------------|
E|-----------------------------------------------------------------------------|

G|---------------------------------------------------------------------------|
D|----------------------5----------------------------------------------------|
A|--7--------------------------5---------------------------------------------|
E|------------3--------------------------------------------------------------|

Pre Chorus

G|---------------------7----7---------------------------7-7--------------------|
D|--0-2-3-------------------------3----------------7---------------------------|
A|-----------3----5------5--------------3-------5------------------------------|
E|-----------------------------------------------------------------------------|

Chorus

G|----7-------------7---------------7-----------------7------------------------|
D|--5---7---------5---7-----------5---7-------------5---7----------------------|
A|-----------------------------------------------------------------------------|
E|-----------------------------------------------------------------------------|

G|-----------------------------------------------------------------------------|
D|-----------------------------------------------------------------------------|
A|-3/5----------3/5---------------3/5---------------3/5------------------------|
E|-----------------------------------------------------------------------------|

G|-----------------------------------------------------------------------------|
D|--5------555---------7-----777-----------------------------------------------|
A|-----------------------------------------------------------------------------|
E|-----------------------------------------------------------------------------|


Finish with the main riff, plus some variations that are used:

G|-------------7/9\7------------------|
D|--5---------------------------------|
A|----------------------5-------------|
E|------------------------------------|

G|------------------------------------|
D|--5---------3/4\3/4\3/4-------------|
A|----------------------------5-------|
E|------------------------------------|
            
Submit corrections

comments powered by Disqus
↑ Back to top | Kate Bush Bass for Kashka From Baghdad. Lyrics for acoustic guitar and electric guitar. 1 Tablatures and chords are parodies/interpretations of the original songs. You may use it for private study, scholarship, research or language learning purposes only