» » »

Katchafire, Get Away Bass tabs (ver.1)

Artists:  A B C D E F G H I J K L M N O P Q R S T U V W X Y Z # 

Get Away Bass tabs (ver.1)

Katchafire Tabs
Rating:
0/5 (0 votes)
Get Away lessons Tabs too difficult? Try these video lessons and learn fast
                Katchafire - Get Away - Bass Tab

Tuning:

Riff 1
G|-------------------------| |-----------------------|
D|-------------------------| |-----------------------|
A|------------5~--555-8--7-| |----------5~-55--------|
E|5-5-5-5-8----------------|(x3) |5-5-5-5-8----------|

Riff 2
G|--------------|---------7-10-7-|
D|-----------7~-|-------7--------|
A|-----5-5-8----|-5-5-8----------|
E|5-5-8---------|----------------|

Riff 3
G|-----------------------------------------------------------|
D|-7-5-77--7-5------------------7-5-77--5-7-5----------------|
A|----------------5-5---5---------------------7---5-5---5----|
E|--------------------8----8--------------------------8---88-|

Riff 4
G|--------------|---------7-10-7-|--------------|------------|
D|-----------7~-|-------7--------|-----------7~-|------------|
A|-----5-5-8----|-5-5-8----------|-----5-5-8----|5-5-5-5-5---|
E|5-5-8---------|----------------|5-5-8---------|------------|

Riff 5
G|----------------| |-----------------------|
D|7~--------------| |7~---------------------|
A|-------5~-5-3-5-| |-------5~--5-7---------|
E|---5-5----------|(x3) |---5-5-------------|


Outro Riff
G---------------|------------|
D|-----------7~-|--------7---|
A|-----5-5-8----|5-5-8-8-----|
E|5-5-8---------|------------|


| / slide up
| slide down
| h hammer-on
| p pull-off
| ~ vibrato
| + harmonic
| x Mute note
            
Submit corrections

comments powered by Disqus
↑ Back to top | Katchafire Bass for Get Away. Lyrics for acoustic guitar and electric guitar. Tablatures and chords are parodies/interpretations of the original songs. You may use it for private study, scholarship, research or language learning purposes only