» » »

Katchafire, Colour Me Life Bass tabs (ver.1)

Artists:  A B C D E F G H I J K L M N O P Q R S T U V W X Y Z # 

Colour Me Life Bass tabs (ver.1)

Katchafire Tabs
 Rating:
4.2/5 (5 votes)
Colour Me Life lessons Tabs too difficult? Try these video lessons and learn fast
1
                Katchafire - Colour Me Life - Bass Tab 
tuning: Standard


Intro
G|-----------|--------------|
D|3---3----5-|---3---3----5-|
A|--3---5~---|-----3---5~---|
E|-----------|--------------|


Verse
G|-------------------------|
D|3-3-0---0~---------------|
A|------3----------0-1-0---|
E|-------------0-3-------3-|


Pre Chorus This has many variations. Just make them up.
G|---------3----------5----------3----------5---------3-------------------|
D|------3----3-------5---------3---3-------5------3-----3-----------------|
A|---3h5-5--------3-3----1~-3h5-5-------3-3---1-1---5-----3-3---1-1-------|
E|------------------------------------------------------------------------|


Chorus
G|---------------------------------|---------------------------------|
D|------------3~-------------5-----|------------3~-------------------|
A|------0-1----------0-1-3-3---3h5-|------0-1----------0-1-3---1-----|
E|1-1-3-----3----3~-3--------------|1-1-3-----33---3~-3--------------|


| / slide up
| slide down
| h hammer-on
| p pull-off
| ~ vibrato
| + harmonic
| x Mute note
            
Submit corrections

comments powered by Disqus
↑ Back to top | Katchafire Bass for Colour Me Life. Lyrics for acoustic guitar and electric guitar. 1 Tablatures and chords are parodies/interpretations of the original songs. You may use it for private study, scholarship, research or language learning purposes only