» » »

Katatonia, Teargas Tabs (ver.1)

Artists:  A B C D E F G H I J K L M N O P Q R S T U V W X Y Z # 

Teargas Tabs (ver.1)

Katatonia Tabs
 Rating:
4/5 (4 votes)
Teargas lessons Tabs too difficult? Try these video lessons and learn fast
                Ok this song is so easy to learn and it is very good. it may
seem hard because of the riffs but give it a try. wicked song

Riff A (clean)
|-------12-------12----------12-------12----------10-------10--------5-----5-|
|----10-------10----------10-------10----------10-------10---------5-----5---|
|-12-------12----------12-------12----------10-------10----------5-----5-----|Gtr
|----------------------------------------------------------------------------| I
|----------------------------------------------------------------------------|
|----------------------------------------------------------------------------|
|                                                                            |
|-0--------------------0--------------------0--------------------0-----------|
|-5--------------------5--------------------6--------------------1-----------|
|-2--------------------4--------------------7--------------------2-----------|Gtr
|-5--------------------5--------------------7--------------------2-----------| II
|-0-----------------------------------------5--------------------0-----------|
|----------------------3-----------------------------------------------------|


Riff B (electric)
|-------------------------------------------------|
|-13-13-13-13-13-13-12-12-12-12-12-12-12-12-12-12-|
|-------------------------------------------------|Gtr
|-------------------------------------------------| I
|-------------------------------------------------|
|-------------------------------------------------|
|                                                 |
|-------------------------------------------------|
|-------------------------------------------------|
|-------------------------------------------------|Gtr
|-3--3--3--3--3--3--3--3--3--3--3--3--3--3--3--3--| II
|-3--3--3--3--3--3--3--3--3--3--3--3--3--3--3--3--|
|-1--1--1--1--1--1--1--1--1--1--1--1--1--1--1--1--|



|-------------------------------------------------|
|-13-13-13-13-13-13-12-12-12-12-12-12-12-12-12-12-|
|-------------------------------------------------|Gtr
|-------------------------------------------------| I
|-------------------------------------------------|
|-------------------------------------------------|
|						  |
|-------------------------------------------------|
|-------------------------------------------------|
|-2--2--2--2--2--2--2--2--2--2--2--2--2--2--2--2--|Gtr
|-2--2--2--2--2--2--2--2--2--2--2--2--2--2--2--2--| II
|-0--0--0--0--0--0--0--0--0--0--0--0--0--0--0--0--|
|-------------------------------------------------|



|-15-15-15-15-15-15-15-15-15-15-15-15-15-15-15-15-|
|-13-13-13-13-13-13-12-12-12-12-12-12-12-12-12-12-|
|-------------------------------------------------|Gtr
|-------------------------------------------------| I
|-------------------------------------------------|
|-------------------------------------------------|
|						  |
|-------------------------------------------------|
|-------------------------------------------------|
|-5--5--5--5--5--5--5--5--5--5--5--5--5--5--5--5--|Gtr
|-5--5--5--5--5--5--5--5--5--5--5--5--5--5--5--5--| II
|-3--3--3--3--3--3--3--3--3--3--3--3--3--3--3--3--|
|-------------------------------------------------|



|-17-17-17-17-17-17-17-17-17-17-17-17-17-17-17-17-|
|-17-17-17-17-17-17-17-17-17-17-17-17-17-17-17-17-|
|-------------------------------------------------|Gtr
|-------------------------------------------------| I
|-------------------------------------------------|
|-------------------------------------------------|
|						  |
|-------------------------------------------------|
|-------------------------------------------------|
|-------------------------------------------------|Gtr
|-3--3--3--3--3--3--3--3--3--3--3--3--3--3--3--3--| II
|-3--3--3--3--3--3--3--3--3--3--3--3--3--3--3--3--|
|-1--1--1--1--1--1--1--1--1--1--1--1--1--1--1--1--|



|-------------------------------------------------|
|-13-13-13-13-13-13-12-12-12-12-12-12-12-12-12-12-|
|-------------------------------------------------|Gtr
|-------------------------------------------------| I
|-------------------------------------------------|
|-------------------------------------------------|
|						  |
|-------------------------------------------------|
|-------------------------------------------------|
|-------------------------------------------------|Gtr
|-3--3--3--3--3--3--3--3--3--3--3--3--3--3--3--3--| II
|-3--3--3--3--3--3--3--3--3--3--3--3--3--3--3--3--|
|-1--1--1--1--1--1--1--1--1--1--1--1--1--1--1--1--|



|-------------------------------------------------|
|-13-13-13-13-13-13-12-12-12-12-12-12-12-12-12-12-|
|-------------------------------------------------|Gtr
|-------------------------------------------------| I
|-------------------------------------------------|
|-------------------------------------------------|
|						  |
|-------------------------------------------------|
|-------------------------------------------------|
|-2--2--2--2--2--2--2--2--2--2--2--2--2--2--2--2--|Gtr
|-2--2--2--2--2--2--2--2--2--2--2--2--2--2--2--2--| II
|-0--0--0--0--0--0--0--0--0--0--0--0--0--0--0--0--|
|-------------------------------------------------|



|-------------------------------------------------|
|-17-17-17-17-17-17-15-15-15-15-15-15-13-13-13-13-|
|-------------------------------------------------|Gtr
|-------------------------------------------------| I
|-------------------------------------------------|
|-------------------------------------------------|
|					          |
|-------------------------------------------------|
|-------------------------------------------------|
|-------------------------------------------------|Gtr
|-5--5--5--5--5--5--5--5--5--5--5--5--5--5--5--5--| II
|-5--5--5--5--5--5--5--5--5--5--5--5--5--5--5--5--|
|-3--3--3--3--3--3--3--3--3--3--3--3--3--3--3--3--|



|-------------------------------------------------|
|-------------------------------------------------|
|-14-14-14-14-14-14-------------------------------|Gtr
|-------------------14-14-14-14-14-14-14-14-14-14-| I
|-------------------------------------------------|
|-------------------------------------------------|
|						  |
|-------------------------------------------------|
|-------------------------------------------------|
|-7--7--7--7--7--7--7--7--7--7--7--7--7--7--7--7--|Gtr
|-7--7--7--7--7--7--7--7--7--7--7--7--7--7--7--7--| II
|-5--5--5--5--5--5--5--5--5--5--5--5--5--5--5--5--|
|-------------------------------------------------|


Solo 1
|-----------------------------------------------|
|-12----10------12---13---12----13---12----10---|
|-14bf--12bf----14bf-15bf-14bf--15bf-14bf--12bf-|Gtr
|-----------------------------------------------| I
|-----------------------------------------------|
|-----------------------------------------------|
|						|
|------------0----------------------0-----------|
|------------0----------------------0-----------|
|------------2-------------2--------2-----------|Gtr
|-3-------------------5----2--------------------| II
|-3-------------------5----0--------------------|
|-1-------------------3-------------------------|



|----------------------------------|
|-12----10-------------------------|
|-14bf--12bf----9--7--4h5p4\2~~----|Gtr
|----------------------------------| I
|----------------------------------|
|----------------------------------|
|				   |
|------------0-------------------0-|
|------------0-------------------0-|
|-5----------5-------------------2-|Gtr
|-5-------------------3------------| II
|-3-------------------3------------|
|---------------------1------------|



|-----------------------------------------------|
|-12----10------12---13---12----13---12----10---|
|-14bf--12bf----14bf-15bf-14bf--15bf-14bf--12bf-|Gtr
|-----------------------------------------------| I
|-----------------------------------------------|
|-----------------------------------------------|
|						|
|------------0----------------------0-----------|
|------------0----------------------0-----------|
|------------2-------------2--------2-----------|Gtr
|-3-------------------5----2--------------------| II
|-3-------------------5----0--------------------|
|-1-------------------3-------------------------|



|--------------------------------------|
|-12----10-----------------------------|
|-14bf--12bf----9--7--4h5p4\2~~----1~~-|Gtr
|--------------------------------------| I
|--------------------------------------|
|--------------------------------------|
|				       |
|------------0---------------------1---|
|------------0---------------------1---|
|------------4---------------------1---|Gtr
|-5-------------------3----------------| II
|-5-------------------3----------------|
|-3-------------------1----------------|




Solo 2 (Gtr II playing Riff B)
|-12-12-12-12-12-12-10-10-10-10-10-10-10-10-10-10-|
|-13-13-13-13-13-13-12-12-12-12-12-12-12-12-12-12-|
|-------------------------------------------------|Gtr
|-------------------------------------------------| I
|-------------------------------------------------|
|-------------------------------------------------|



|-15-15-15-15-15-15-15-15-15-15-15-15-15-15-15-15-|
|-13-13-13-13-13-13-12-12-12-12-12-12-12-12-12-12-|
|-------------------------------------------------|Gtr
|-------------------------------------------------| I
|-------------------------------------------------|
|-------------------------------------------------|



|-15-15-15-15-15-15-13-13-13-13-12-12-12-12-10-10-7h8p7\5-|
|---------------------------------------------------------|
|-12-12-12-12-12-12-10-10-10-10-9--9--9--9--7--7--4h5p4\2-|Gtr
|---------------------------------------------------------| I
|---------------------------------------------------------|
|---------------------------------------------------------|
            
Submit corrections

comments powered by Disqus
↑ Back to top | Katatonia Tabs for Teargas. Lyrics for acoustic guitar and electric guitar. Tablatures and chords are parodies/interpretations of the original songs. You may use it for private study, scholarship, research or language learning purposes only