>
 >
Had To

Had To Guitar Tabs

Katatonia - Had To chords, tabs, tablatures, lyrics

Guitar lessons | Add/correct | Request | Top 50 tabs Artists:  A B C D E F G H I J K L M N O P Q R S T U V W X Y Z 0-9

Had To Guitar Tabs – Katatonia

CD, Sheet music, Poster

Do you like Had To? Share with your friends now
Tabs
                     KATATONIA - HAD TO (LEAVE)
                  From the Album TONIGHT'S DECISION
                 Copyright 1999 - PEACEVILLE RECORDS
                     Version 1.0 - JANUARY 2000


For Questions, Comments, Newest Version, or Corrections contact me

Check Out Death Warp, With More Transcriptions On It:

..  - palm mute          /  - slide up to
 \  - slide down to      ~  - vibrato
 h  - hammer on          b  - bend
 p  - pull off            Suffixes for bend
                          ph - pinch harmonic
                           f - full bend    h - half bend
*  - see comment           r - release      t - tap bend
X  - percussion mute       ~ - vibrato bend
@  - slight palm mute     () - ghost note, sustained note

Guitar 1 
Clean (a bit distorted)
Riff 1
|-------------------------|
|-------------------------|
|-------3--------3--------|
|-----2--------2--------2-|
|---2--------2--------2---|
|-0--------0--------1-----|

Riff 2
|---------------------------------------------------------------------------|
|---------------------------------------------------------------------------|
|-------3--------3---------------3--------3---------------3--------3--------|
|-----2--------2--------2------2--------2--------2------2--------2--------2-|
|---2--------2--------2------2--------2--------2------2--------2--------2---|
|-0--------0--------1------0--------0--------1------0--------0--------1-----|

|---------------------|---|
|---------------------|---|
|------10------10-7---|---|
|---10------10----7-5-|-2-|
|-0-------0-------5---|-2-|
|---------------------|-0-|

Bridge
|-----------|
|-----------|
|-----------|
|-2--2--2-2-|
|-2--2--2-2-|
|-0--0--0-0-|
  .  .  

Riff 3
|------------------------------------------------------| Not sure about
|------------------------------------------------------| these flageolettes
|-5--5-----5-5--------------4--4--4--4-4---------------| played here! 
|-5--5--5--5-5-5--5--5--5-5-4--4-----4-4-4--4--2-4-4-2-| If there's anyone 
|-3--3-----3-3-5--5-----5-5-2--2-----2-2-4--4--2-4-4-2-| out there please 
|-3--3-----3-3-3--3-----3-3-2--2-----2-2-2--2--0-2-2-0-| mail it to me!
        *            *            *

Riff 4
|--------------------------------------------|
|--------5-----------------------------------|
|----------4~~----2~------------5-----4---4~-|
|-2~~-----------------5-4-2~--3---4-5---5----|
|--------------------------------------------|
|--------------------------------------------|

Riff 5
    16x       4x        4x        4x         4x       4x        4x         4x       4x
|-7p3p2p0-|-9p5p4p2-|-8p7p3p0-|-9p5p4p2-|-8p7p3p0-|-9p5p4p2-|-8p7p3p0-|-9p5p4p2-|-8p7p3p0-|
|---------|---------|---------|---------|---------|---------|---------|---------|---------|
|---------|---------|---------|---------|---------|---------|---------|---------|---------|
|---------|---------|---------|---------|---------|---------|---------|---------|---------|
|---------|---------|---------|---------|---------|---------|---------|---------|---------|
|---------|---------|---------|---------|---------|---------|---------|---------|---------|

Guitar 2
Electric
Riff 2
|-------------------------------------------------------------------|---|
|-------------------------------------------------------------------|---|
|-------------------------------------------------------------------|---|
|--------------2---------------2---------------2----------------7-5-|-2-|
|------------2---------------2---------------2----0-0-0-0-0-0-5-----|-2-|
|-0--0--0--1------0--0--0--1------0--0--0--1------------------------|-0-|

Riff 4
 (1. & 2. beginning)
|---|---|------------------------------|
|---|---|------------------------------|
|---|---|---------------7--------------|
|-2-|-2-|----------2----7--2---3--5--2-|
|-2-|-1-|----------2----5--2---3--5--2-|
|-0-|-0-|-2-2-3-3--0-------0---1--3--0-|

Riff 5
1. part
|-7--7-7-------|---------------|-------------------------|
|-7--7-7-------|---------------|-------------------------|
|-9--9-9--etc.-|---------------|-------------------------|
|-9--9-9-------|-4-4-4--4-etc.-|-2-2-2--2-etc.-9-9-9-9-7-|
|-7--7-7-------|-4-4-4--4------|-2-2-2--2------7-7-7-7-5-|
|-0--0-0-------|-2-2-2--2------|-0-0-0--0----------------|

Check Out Death Warp, With More Transcriptions On It:





Comments


Popular Katatonia tabs & chords
Deadhouse Bass Tabs
Dispossession Bass Tabs
O How I Enjoy The Light Chords
12 Tabs
Evidence Tabs
Murder Tabs
Teargas Tabs
This Punishment Tabs
Velvet Thorns Of Drynwhyl Intro Tabs
Departer Ukulele


Song lyrics



↑ Back to top | Tablatures and chords are parodies/interpretations of the original songs. You may use it for private study, scholarship, research or language learning purposes only
© 2014 AZChords.com Contact us | Privacy policy | DMCA | Add/correct tabs | Request tabs | Top 50 tabs