» » »

Widdershins Tabs (ver.1)

Artists:  A B C D E F G H I J K L M N O P Q R S T U V W X Y Z # 

Widdershins Tabs (ver.1)

Katastrophy Wife
Rating:
0/5 (0 votes)

Tabs too difficult? Try these video lessons and learn fast.
                Guitar: Kat Bjelland

Intro/Main Riff/Chorus

E------------------------------------
B------------------------------------
G------------------------------------
D-2-2--4-4--5-5-5--7-7-7--7-7-7-7-7--
A-2-2--4-4--5-5-5--7-7-7--7-7-7-7-7--
E-0-0--2-2--3-3-3--5-5-5--5-5-5-5-5-- x4

E-------------------------------------
B-------------------------------------
G-------------------------------------
D-9-9--9-9-9--9--12-12-12-12-12-------
A-7-7--7-7-7--7--10-10-10-10-10-------
E------------------------------------- x3


Verse:

let notes from intro ring and sometimes play the 5th fret on B string


Sometimes there are wierd slides and stuff in the background towards the end, which are hard to tab out, can figure it out from listening to the track.
            
Tabs too difficult? Try these video lessons and learn fast.




comments powered by Disqus
↑ Back to top | Tablatures and chords are parodies/interpretations of the original songs. You may use it for private study, scholarship, research or language learning purposes only