» » »

Katastrophy Wife, Rosacea Bass tabs (ver.1)

Artists:  A B C D E F G H I J K L M N O P Q R S T U V W X Y Z # 

Rosacea Bass tabs (ver.1)

Katastrophy Wife Tabs
 Rating:
4/5 (4 votes)
Rosacea lessons Tabs too difficult? Try these video lessons and learn fast
1
                Katastrophy Wife (Amusia)

Rosacea (All lyrics by Katastrophy Wife)


INTRO


G--------------------
D--------------------
A--------------------
E-5---5h7--3--3h5-0--

G-----------------------------------
D-----------------------------------
A-----------------------------------
E-5--7--8--10-8-7-8-7-5--3-3h5-0----


VERSE


pretending i’m blind...i have eyes there

G--------------------
D--------------------
A--------------------
E-5---5h7--3--3h5-0--

permanet spent neon...church fair

G-----------------------------------
D-----------------------------------
A-----------------------------------
E-5--7--8--10-8-7-8-7-5--3-3h5-0----

its enough to make you cry

G------------------------------------------------------
D------------------------------------------------------
A------------------------------------------------------
E-5---7-8---8h10---10h12---6h8---10h12---15-12-10-10h12--

believe what i say...meaning

G-----------------------------------
D-----------------------------------
A-----------------------------------
E-5--7--8--10-8-7-8-7-5--3-3h5-0----


FILL (on..it goes on)

G------------------------------------------------------------
D------------------------------------------------------------
A------------------------------------------------------------
E-10-10-10-10-10-10-10-10--8-8-8---8-10-8-7-8-7-5------------ repeat


CHORUS

My Rosacea

G--------------------------------------------
D--------------------------------------------
A--------------------------------------------
E-5---5-4-3-2-1--1-1-2-3-4-5---7-8--1-------- repeat

on the last chorus, play open E before repeating the chorus again.
            
Submit corrections

comments powered by Disqus
↑ Back to top | Katastrophy Wife Bass for Rosacea. Lyrics for acoustic guitar and electric guitar. 1 Tablatures and chords are parodies/interpretations of the original songs. You may use it for private study, scholarship, research or language learning purposes only