» » »

Pretty Car Tabs (ver.1)

Artists:  A B C D E F G H I J K L M N O P Q R S T U V W X Y Z # 

Pretty Car Tabs (ver.1)

Katastrophy Wife
Rating:
0/5 (0 votes)

Hard to play? Try these video lessons and learn fast.
                Tuning: Standard EADGBE
Song Title: Pretty Car

Intro:

E-------------------------------------------------|
B-------------------------------------------------|
G-4-4-4-4-4-4-4-4-xx------------------------------|
D-4-4-4-4-4-4-4-4-xx--5-5-5-5-5-xx-4-4-4-4-4-xx---|
A-2-2-2-2-2-2-2-2-xx--5-5-5-5-5-xx-4-4-4-4-4-xx---|
E---------------------3-3-3-3-3-xx-2-2-2-2-2-xx---| Repeat x4

note, on the intro, on the 3rd and 4th repeat, the strings are picked like:

E---------------------------------------------|
B---------------------------------------------|
G-------4-------4-----------------------------|
D----4------4---------------5------------4----|
A-2---------------------5------5------4-----4-|
E-------------------3--------------2----------|


Verse:

E---------------------------------------------------|
B---------------------------------------------------|
G--4-4--2-2-----------------------2-2--4-4-4-4-4-4--|
D--4-4--2-2--5-5-5-5-5-5-----4-4--2-2--4-4-4-4-4-4--|
A--2-2--0-0--5-5-5-5-5-5-----4-4--0-0--2-2-2-2-2-2--|
E------------3-3-3-3-3-3-----2-2--------------------| Repeat

Chorus: �like a dagger...drive away in a pretty car�

E-----------------------------------------------------------|
B-----------------------------------------------------------|
G-7--9-9-9-9--9-9--12-12-12-12-12---------------------------|
D-7--9-9-9-9--9-9--12-12-12-12-12--10-10-10-10-12-12-12-12--|
A-5--7-7-7-7--7-7--10-10-10-10-10--10-10-10-10-12-12-12-12--|
E----------------------------------8--8--8--8--10-10-10-10--| Repeat

The intro is played as a fill towards the end.

Lyrics:
In a pretty car you're the star
see you fall in all the bars
when we're apart it hurts
my heart
in a pretty car you're the star

like a dagger through
your heart
another dagger through
your heart
drive away in your
pretty car
            
Hard to play? Try these video lessons and learn fast. | Correct




comments powered by Disqus
↑ Back to top | Tablatures and chords are parodies/interpretations of the original songs. You may use it for private study, scholarship, research or language learning purposes only