>
 >
Years Of Enlightenment Decades In Darkness

Years Of Enlightenment Decades In Darkness Guitar Tabs

Kataklysm - Years Of Enlightenment Decades In Darkness chords, tabs, tablatures, lyrics

Guitar lessons | Add/correct | Request | Top 50 tabs Artists:  A B C D E F G H I J K L M N O P Q R S T U V W X Y Z 0-9

Years Of Enlightenment Decades In Darkness Guitar Tabs – Kataklysm

CD, Sheet music, Poster

Do you like Years Of Enlightenment Decades In Darkness? Share with your friends now
Tabs
Band:Kataklysm



I play it for a 7 string guitar,but heres the one for a 6 string guitar.enjoy:)

Tuning: 2.5 steps down

Keys:
 ___ - palm mute
  "  - tremelo pick
  x  - mute


INTRO:

|--------2--2-2--------2--2-0--------1--1-1--------1--1-0--------1--1-1-|
|--------2--2-2--------2--2-0-3--3-3-3--3-3-3--3-3-3--3-3--------3--3-3-|
|-----------------------------2--2-2--------2--2-2--------3--3-3--------|
|-4--4-4--------4--4-4--------0--0-0--------0--0-0--------3--3-3--------|
|-4--4-4--------4--4-4------------------------------------1--1-1--------|
|-2--2-2--------2--2-2--------------------------------------------------|

 --------1--1-0--------2--2-2--------2--2-2--------3--3-3--------3--3-3-|
 --------1--1-0--------2--2-2--------2--2-2--------3--3-3--------3--3-3-|
 -3--3-3-------------------------------------------5--5-5--------5--5-5-|
 -3--3-3--------4--4-4--------4--4-4--------5--5-5--------5--5-5--------|
 -1--1-1--------4--4-4--------4--4-4--------3--3-3--------3--3-3--------|
 ---------------2--2-2--------2--2-2--------3--3-3--------3--3-3--------|

 --------4--4-4--------4--4-0--------0--0-0--------0--0-0---------------|
 --------4--4-4--------4--4-0--------0--0-0--------0--0-0---------------|
 ------------------------------------4--4-4--------4--4-4-4-------------|
 -6--6-6--------6--6-6--------2--2-2--------2--2-2--------2-------------|
 -6--6-6--------6--6-6--------2--2-2--------2--2-2--------2-------------|
 -4--4-4--------4--4-4--------0--0-0--------0--0-0--------0-------------|


RIFF A:
(Gtr 1)
|-------------------------------------------------------------------------|
|-------------------------------------------------------------------------|
|-------------------------------------------------------------------------|
|-----5-5--8--8-7-7-----5-5-10-10--9--9-----5-5--8--8-7-7---------7-7-4-4-|
|-----7-7-10-10-9-9-----7-7-12-12-11-11-----7-7-10-10-9-9-----5-5-----5-5-|
|-000---------------000-----------------000---------------000-------------|
  _______________________________________________________________________

(Gtr 2)
|-------------------------------------------------------------------------|
|-------------------------------------------------------------------------|
|-------------------------------------------------------------------------|
|-------------------------------------------------------------------------|
|-222---------------222-----------------222---------------222-------------|
|-000---------------000-----------------000---------------000-------------| 2x
  ___               ___                 ___               ___

(Gtr 1)
|-------------------------------------------------------------------------|
|-------------------------------------------------------------------------|
|-------------------------------------------------------------------------|
|-----5-5--8--8-7-7-----5-5-10-10--9--9-----5-5--8--8-7-7---------7-7-4-4-|
|-----7-7-10-10-9-9-----7-7-12-12-11-11-----7-7-10-10-9-9-----5-5-----5-5-|
|-000---------------000-----------------000---------------000-------------|
  _______________________________________________________________________

(Gtr 2)
|-------------------------------------------------------------------------|
|-------------------------------------------------------------------------|
|-------------------------------------------------------------------------|
|-----5-5--8--8-7-7-----5-5-10-10--9--9-----5-5--8--8-7-7---------7-7-4-4-|
|-----7-7-10-10-9-9-----7-7-12-12-11-11-----7-7-10-10-9-9-----5-5---------|
|-000---------------000-----------------000---------------000-------------| 2x
  _______________________________________________________________________


RIFF Ba:
(Gtr 1)
|------------------------------------------------------------------------------|
|------------------------------------------------------------------------------|
|------------------------------------------------------------------------------|
|------------------9"-----7"-----------------------------9"--------------------|
|----7"-10"-7"-10"----10"------10"-9"------7"-10"-7"-10"----10"-9"-------9"-7"-|
|-0"------------------------------------0"---------------------------10"-------|

(Gtr 2)
|------------------------------------------------------------------------------|
|------------------------------------------------------------------------------|
|------------------------------------------------------------------------------|
|---------------------------------------2--------------------------------------|
|-2-------------------------------------2--------------------------------------|
|-0-------------------------------------0--------------------------------------|

(Gtr 1 & 2)
|------------------------------------------------------------------------------|
|------------------------------------------------------------------------------|
|------------------------------------------------------------------------------|
|------------------9"-----7"-----------------------------9"--------------------|
|----7"-10"-7"-10"----10"------10"-9"------7"-10"-7"-10"----10"-9"-------9"-7"-|
|-0"------------------------------------0"---------------------------10"-------|
                                                                            2x


RIFF C:

|------------------------------------------|     |---|
|------------------------------------------|     |---|
|------------------------------------------|     |---|
|------------------------------------------|     |---|
|-7"--------10"-9"-7"-7"-------------------|     |-2-|
|-----------------------------------10"----| 4x  |-0-|
  __________          _____________________


RIFF D:

Note - I can't hear guitar 2 too well, so it might follow guitar 1, or it could
       be something like what i have down...either way, just play guitar 1...

(Gtr 1)
|----------------------------------------------------------------------------|
|----------------------------------------------------------------------------|
|----------------------------------------------------------------------------|
|-7"------10"---9"------------7"---9"---7"------10"---9"------------12"------|
|--------------------10"-----------------------------------10"---------------|
|----------------------------------------------------------------------------|
  ___________________________________________________________________________

(Gtr 2)
|----------------------------------------------------------------------------|
|----------------------------------------------------------------------------|
|--------------------------------------------------------------------7"------|
|-7"------------------5"------7"--------7"------------------5"-------x"------|
|-7"------------------5"------5"--------7"------------------5"-------5"------|
|-5"------------------3"----------------5"------------------3"---------------|
                                                                          2x

(Gtr 1)
|-----------------------------------------------------------------------------|
|-----------------------------------------------------------------------------|
|-----------------------------------------------------------------------------|
|-7-7-7-7-7-7-7-7-10-10-10-10-9-9-9-9-------------------------7-7-7-7-9-9-9-9-|
|-------------------------------------10-10-10-10-10-10-10-10-----------------|
|-----------------------------------------------------------------------------|
  ___________________________________________________________________________

(Gtr 2)
|-----------------------------------------------------------------------------|
|-----------------------------------------------------------------------------|
|------------------8--8--8--8-7-7-7-7--7--7--7--7--7--7--7--7-7-7-7-7-7-7-7-7-|
|-7-7-7-7-7-7-7-7-10-10-10-10-9-9-9-9--5--5--5--5--5--5--5--5-5-5-5-5-5-5-5-5-|
|-7-7-7-7-7-7-7-7-------------------------------------------------------------|
|-----------------------------------------------------------------------------|
  ___________________________________________________________________________

(Gtr 1)
 -----------------------------------------------------------------------------|
 -----------------------------------------------------------------------------|
 -----------------------------------------------------------------------------|
 -7-7-7-7-7-7-7-7-10-10-10-10-9-9-9-9-------------------------12"-------------|
 -------------------------------------10-10-10-10-10-10-10-10-----------------|
 -----------------------------------------------------------------------------|
  ____________________________________________________________________________

(Gtr 2)
 -----------------------------------------------------------------------------|
 -----------------------------------------------------------------------------|
 ------------------8--8--8--8-7-7-7-7--7--7--7--7--7--7--7--7-7-7-7-7-7-7-7-7-|
 -7-7-7-7-7-7-7-7-10-10-10-10-9-9-9-9--5--5--5--5--5--5--5--5-5-5-5-5-5-5-5-5-|
 -7-7-7-7-7-7-7-7-------------------------------------------------------------|
 -----------------------------------------------------------------------------|
  ___________________________________________________________________________


RIFF A


RIFF Bb:
(Gtr 1)
|------------------------------------------------------------------------------|
|------------------------------------------------------------------------------|
|------------------------------------------------------------------------------|
|------------------9"-----7"-----------------------------9"--------------------|
|----7"-10"-7"-10"----10"------10"-9"------7"-10"-7"-10"----10"-9"-------9"-7"-|
|-0"------------------------------------0"---------------------------10"-------|

(Gtr 2)
|------------------------------------------------------------------------------|
|------------------------------------------------------------------------------|
|------------------------------------------------------------------------------|
|--------------------------------------------------------9"--------------------|
|-2----------------------------------------7"-10"-7"-10"----10"-9"-------9"-7"-|
|-0-------------------------------------0"---------------------------10"-------|

(Gtr 1 & 2)
|------------------------------------------------------------------------------|
|------------------------------------------------------------------------------|
|------------------------------------------------------------------------------|
|------------------9"-----7"-----------------------------9"--------------------|
|----7"-10"-7"-10"----10"------10"-9"------7"-10"-7"-10"----10"-9"-------9"-7"-|
|-0"------------------------------------0"---------------------------10"-------|
                                                                            2x

RIFF C


RIFF D - 3x (2x under solo)


OUTRO:

|-----------------------------------------------------------------------------|
|-----------------------------------------------------------------------------|
|-----------------------------------------------------------------------------|
|-7---7--7--7-7-7-7-77"----------------------------------------------------7\-|
|-7---7--7--7-7-7-7-77"----------------------------------------------------7\-|
|-5---5--5--5-5-5-5-55"----------------------------------------------------5\-|





Comments


Popular Kataklysm tabs & chords
Feeling The Neverworld 1 Bass Tabs
Machivellian Bass Tabs
Shrine Of Life Bass Tabs
World Of Treason 1 Bass Tabs
Courage Through Hope Tabs
Feared Resistance Tabs
It Turns To Rust Tabs
Portraits Of Anger Tabs
Serenity In Fire Tabs
Tragedy I Preach Tabs


Song lyrics



↑ Back to top | Tablatures and chords are parodies/interpretations of the original songs. You may use it for private study, scholarship, research or language learning purposes only
© 2014 AZChords.com Contact us | Privacy policy | DMCA | Add/correct tabs | Request tabs | Top 50 tabs