» » »

Kataklysm, Tear Down The Kingdom Tabs (ver.1)

Artists:  A B C D E F G H I J K L M N O P Q R S T U V W X Y Z # 

Tear Down The Kingdom Tabs (ver.1)

Kataklysm Tabs
 Rating:
4/5 (4 votes)
Tear Down The Kingdom lessons Tabs too difficult? Try these video lessons and learn fast
1
                TEAR DOWN THE KINGDOM

B tuning (B,E,A,D,F#,B)

__=Palm Mute
"=tremblo pick

RIFF1 (BOTH GUITARS)
                                                                        
|----------------------------------------------------------------------|
|----------------------------------------------------------------------|
|----------------------------------------------------------------------|
|-10"--9"--10"-7"--9"----------5"-10"--9"--10"-7"-9"--------9"-10"-12"-|
|---12"--10"-----9"-10"-7"-5"-7"----12"-10"-----9"-9"-10"-12"----------|
|---------------------------7"-----------------------------------------|

RIFF 2(BOTH GUITARS)
|---------------------|
|---------------------|
|---------------------|
|---------------------|
|-2"-0"-3"-2"-2-0-2-3-|
|-3"-2"-5"-3"-0-2-3-5-|

CHORUS(GUITAR 1)         X2                         X2
|--------------------------|---------------------------|
|--------------------------|---------------------------|
|--------------------------|---4-2--4-2-----4-2--------|
|---5-4--5-4-2--5-4--2"-4"-|-----------4-5-------2"-4"-|
|-----------5--------------|---------------------------|
|-00---00-----00---00------|-00---00------00---00------|
| __   __     __   __        __   __      __   __           
| 
| CHORUS(GUITAR 2)         X2                                   
|--------------------------|---------------------------|
|--------------------------|---------------------------|
|--------------------------|---------------------------|
|---5-4--5-4-2--5-4--2"-4"-|---5-4---5-4-2--5-4--2"-4'-|
|-----------5--------3"-5"-|------------5--------3"-5"-|
|-00---00-----00---00------|-00---00------00---00------|
  __   __     __   __        __   __      __   __

RIFF 1
RIFF 2
CHORUS

RIFF 3(GUITAR 1)                                                     
|------------------------------------------------------------|
|------------------------------------------------------------|
|---------------------7"-------------------------------------|
|--9"-10"-9"----9"-10"-9"----10"-9"-10"----9"-10"-9"-7"------|
|-7"-------10"-8"-------10"-7"--------10"-9"----------10"-9"-|
|------------------------------------------------------------|
|                                                                           
| RIFF 3(GUITAR 2)                          
|------------------------------------------|
|------------------------------------------|
|------------------------------------------|
|----------------------------4-----------5-|
|-2------------3-------------2-----------3-|
|-0------------1---------------------------|

RIFF 4(GUITAR 1)                           
|-------------------------------------------|
|-------------------------------------------|
|-------------------------------------------|
|-------------------------------------------|
|-2222-2222-2222-2222-2222-2222-2222-2222---|
|-0000-0000-0000-0000-0000-0000-0000-0000---|
| ____ ____ ____ ____ ____ ____ ____ ____   
|                                                                   
| RIFF 4(GUITAR 2)                                        
|---------------------------------|
|---------------------------------|
|---------------------------------|
|---------------------4---------5-|
|-2---------3---------2---------3-|
|-0---------1---------------------|
 
RIFF 5(BOTH GUITARS)
|-------------------------------------|
|-------------------------------------|
|-------------------------------------|
|-------------------------------------|
|---2"-0"-2"-3"-2"--3"--5"-3"-2"-0"---|
|-0"-------------------------------3"-|

RIFF 1
CHORUS
RIFF 5

FILL
|-----|
|-----|
|-----|
|-----|
|--2--|
|--0--|
            
Submit corrections

comments powered by Disqus
↑ Back to top | Kataklysm Tabs for Tear Down The Kingdom. Lyrics for acoustic guitar and electric guitar. 1 Tablatures and chords are parodies/interpretations of the original songs. You may use it for private study, scholarship, research or language learning purposes only