>
 >
Serenity In Fire

Serenity In Fire Guitar Tabs

Kataklysm - Serenity In Fire chords, tabs, tablatures, lyrics

Guitar lessons | Add/correct | Request | Top 50 tabs Artists:  A B C D E F G H I J K L M N O P Q R S T U V W X Y Z 0-9

Serenity In Fire Guitar Tabs – Kataklysm

CD, Sheet music, Poster

Do you like Serenity In Fire? Share with your friends now
Tabs
Tuning from low to high: B E A D F# B



 Riff 1
|----------------------------------------------------|
|----------------------------------------------------|
|----------------------------------------------------|
|-/-9-----------5-7-4-5-2-/-9------------9-7-10--9-7-|gtr 1
|-/10-----------7-9-5-7-3-/10-----------10-9-12-10-9-|
|-----0-0-0-0-0---------------0-0-0-0-0--------------|
|
|----------------------------------------------------|
|----------------------------------------------------|
|----------------------------------------------------|
|-/-9-----------5-7-4-5-2-/-9------------9-7-10--9-7-|gtr 2
|-/10-----------7-9-5-7-3-/10-----------10-9-12-10-9-|
|-----0-0-0-0-0---------------0-0-0-0-0--------------|

|----------------------------------------------------------------|
|----------------------------------------------------------------|
|----------------------------------------------------------------|
|-/-9-----------5-7-4-5-2---------------------------------|gtr 1-|
|-/10-----------7-9-5-7-3-3-------3/5-----5/7-----75-------------|
|-----0-0-0-0-0-----------5-5-5-5-5/7-7-7-7/8-8-8-87-7-7---------|
|
|----------------------------------------------------------------|
|----------------------------------------------------------------|
|----------------------------------------------------------------|
|-/-9-----------5-7-4-5-2---------------------------------|gtr 2-|
|-/10-----------7-9-5-7-3-3-------3/5-----5/7-----75-------------|
|-----0-0-0-0-0-----------5-5-5-5-5/7-7-7-7/8-8-8-87-7-7---------|

 Riff 2a
|-----------------------------------------------------------------|
|-----------------------------------------------------------------|
|-----------------------------------------------------------------|
|-----------------------------------------------------4-5-2-4-0-2-|gtr 1
|-----3p2-3p2---2-----2h3-----3/5-----3p2-3p2---2-----.-.-.-.-.-.-|
|-0-0-1p0-1p0-0-0-0-0-0h1-0-0-1/3-0-0-1p0-1p0-0-0-0-0-------------|
|
|-----------------------------------------------------------------|
|-----------------------------------------------------------------|
|-----------------------------------------------------------------|
|-----------------------------------------------------4-5-2-4-0-2-|gtr 2
|-----------------------------------------------------.-.-.-.-.-.-|
|-----------------------------------------------------------------|

|-----------------------------------------------------------------|
|-----------------------------------------------------------------|
|-----------------------------------------------------4-5-2-4-0-2-|
|-----------------------------------------------------.-.-.-.-.-.-|gtr 1
|-----3p2-3p2---2-----2h3-----3/5-----3p2-3p2---2-----------------|
|-0-0-1p0-1p0-0-0-0-0-0h1-0-0-1/3-0-0-1p0-1p0-0-0-0-0-------------|
|
|-----------------------------------------------------------------|
|-----------------------------------------------------------------|
|-----------------------------------------------------4-5-2-4-0-2-|
|-----------------------------------------------------.-.-.-.-.-.-|gtr 2
|-2x--------------------------------------------------------------|
|-0x--------------------------------------------------------------|


 Riff 2b
|-----------------------------------------------------------------|
|-----------------------------------------------------------------|
|-----------------------------------------------------------------|
|-----------------------------------------------------4-5-2-4-0-2-|gtr 1
|-----3p2-3p2---2-----2h3-----3/5-----3p2-3p2---2-----.-.-.-.-.-.-|
|-0-0-1p0-1p0-0-0-0-0-0h1-0-0-1/3-0-0-1p0-1p0-0-0-0-0-------------|
|
|-----------------------------------------------------------------|
|-----------------------------------------------------------------|
|-----------------------------------------------------------------|
|-----------------------------------------------------4-5-2-4-0-2-|gtr 2
|-----3p2-3p2---2-----2h3-----3/5-----3p2-3p2---2-----.-.-.-.-.-.-|
|-0-0-1p0-1p0-0-0-0-0-0h1-0-0-1/3-0-0-1p0-1p0-0-0-0-0-------------|

|-----------------------------------------------------------------|
|-----------------------------------------------------------------|
|-----------------------------------------------------4-5-2-4-0-2-|
|-----------------------------------------------------.-.-.-.-.-.-|gtr 1
|-----3p2-3p2---2-----2h3-----3/5-----3p2-3p2---2-----------------|
|-0-0-1p0-1p0-0-0-0-0-0h1-0-0-1/3-0-0-1p0-1p0-0-0-0-0-------------|
|
|-----------------------------------------------------------------|
|-----------------------------------------------------------------|
|-----------------------------------------------------4-5-2-4-0-2-|
|-----------------------------------------------------.-.-.-.-.-.-|gtr 2
|-----3p2-3p2---2-----2h3-----3/5-----3p2-3p2---2-----------------|
|-0-0-1p0-1p0-0-0-0-0-0h1-0-0-1/3-0-0-1p0-1p0-0-0-0-0-------------|

 Riff 3a
|-----------------------------------------------------------------------|
|-----------------------------------------------------------------------|
|-----------------------------------------------------------------------|
|---4-5-2-4-0-2-----------4h5-2~----4-5-2-4-0-2---------------54-|gtr 1-|
|---.-.-.-.-.-.-3-------------------.-.-.-.-.-.-3-5-------5/7-32--------|
|-0-------------.-0-0-0-0---------0-------------.-3-3-3-3-3/5-----------|
|
|-----------------------------------------------------------------------|
|-----------------------------------------------------------------------|
|-----------------------------------------------------------------------|
|---4-5-2-4-0-2-----------4h5-2~----4-5-2-4-0-2---------------54-|gtr 2-|
|---.-.-.-.-.-.-3-------------------.-.-.-.-.-.-3-5-------5/7-32--------|
|-0-------------.-0-0-0-0---------0-------------.-3-3-3-3-3/5-----------|


 Riff 3b
|-----------------------------------------------------------------------|
|-----------------------------------------------------------------------|
|-----------------------------------------------------------------------|
|---4-5-2-4-0-2-----------4h5-2~----4-5-2-4-0-2---------------54-|gtr 1-|
|---.-.-.-.-.-.-3-------------------.-.-.-.-.-.-3-5-------5/7-32--------|
|-0-------------.-0-0-0-0---------0-------------.-3-3-3-3-3/5-----------|
|
|-----------------------------------------------------------------------|
|-----------------------------------------------------------------------|
|-----------------------------------------------------------------------|
|---7-9-5-7-4-5-----------7h9-5~----7-9-5-7-4-5---------------54-|gtr 2-|
|---.-.-.-.-.-.-7-------------------.-.-.-.-.-.-7-5-------5/7-32--------|
|-0-------------.-0-0-0-0---------0-------------.-3-3-3-3-3/5-----------|


 Play this note once, before Riff 4
|---|
|---|
|---|
|---|
|---|
|-0-|


 Riff 4
|------------------------------------------------------------------|
|------------------------------------------------------------------|
|------------------------------------------------------------------|
|-7/9---9---7/9---7/9---9-7-9-5-75---75---4/5---4/5-5-4-2---|gtr 1-|
|-5/7---7---5/7---5/7---7-5-7-3-53---53---2/3---2/3-3-2-0-2--------|
|-----0---0-----0-----0-------------0-----0-----0-----------0------|
|     .   .     .     .             .     .     .
|------------------------------------------------------------------|
|------------------------------------------------------------------|
|------------------------------------------------------------------|
|-7/9---9---7/9---7/9---9-7-9-5-75---75---4/5---4/5-5-4-2---|gtr 2-|
|-5/7---7---5/7---5/7---7-5-7-3-53---53---2/3---2/3-3-2-0-2--------|
|-----0---0-----0-----0-------------0-----0-----0-----------0------|
      .   .     .     .             .     .     .

 Riff 5a
|---------------------------------------------------------------|
|---------------------------------------------------------------|
|---------------------------------------------------------------|
|---------------------------------------------------------------|gtr 1
|-2-2-2-2-0-0-0-0-2-2-2-2-3-3-3-3-0-0-0-0-2-2-2-2-3-3-3-3-5-3-2-|
|-0-0-0-0-2-2-2-2-3-3-3-3-5-5-5-5-2-2-2-2-3-3-3-3-5-5-5-5-7-5-3-|
|
|---------------------------------------------------------------|
|---------------------------------------------------------------|
|---------------------------------------------------------------|
|---------------------------------------------------------------|gtr 2
|-2-2-2-2-0-0-0-0-2-2-2-2-3-3-3-3-0-0-0-0-2-2-2-2-3-3-3-3-5-3-2-|
|-0-0-0-0-2-2-2-2-3-3-3-3-5-5-5-5-2-2-2-2-3-3-3-3-5-5-5-5-7-5-3-|

 Riff 5b
|-----------------------------------------|
|-----------------------------------------|
|-----------------------------------------|
|-5-5-5-5-7-7-7-7--9--9--9--9-10-10-10-10-|gtr 1
|-7-7-7-7-9-9-9-9-10-10-10-10-12-12-12-12-|
|-----------------------------------------|
|
|-----------------------------------------|
|-----------------------------------------|
|-----------------------------------------|
|-5-5-5-5-7-7-7-7--9--9--9--9-10-10-10-10-|gtr 2
|-7-7-7-7-9-9-9-9-10-10-10-10-12-12-12-12-|
|-----------------------------------------|

|------------------------------------------|
|------------------------------------------|
|------------------------------------------|
|-7-7-7-7--9--9--9--9-10-10-10-10-12-10--9-|gtr 1
|-9-9-9-9-10-10-10-10-12-12-12-12-14-12-10-|
|------------------------------------------|
|
|------------------------------------------|
|------------------------------------------|
|------------------------------------------|
|-7-7-7-7--9--9--9--9-10-10-10-10-12-10--9-|gtr 2
|-9-9-9-9-10-10-10-10-12-12-12-12-14-12-10-|
|------------------------------------------|

 Riff 6a
|-----------------------------------------------------------------------|
|-----------------------------------------------------------------------|
|-----------------------------------------------------------------------|
|----------------------------------------------------------------|gtr 1-|
|-2-53---65---87---7/8-5/7-3/5-2-53---65---87---7/8-2-5-3---------------|
|-0-31-0-43-0-65-0-5/6-3/5-1/3-0-31-0-43-0-65-0-5/6-0-3-1---------------|
|
|----------------------------------------------------------------|
|----------------------------------------------------------------|
|----------------------------------------------------------------|
|----------------------------------------------------------------|gtr 2
|-2x------------------------------------------------------2-5-3x-|
|-0x------------------------------------------------------0-3-1x-|

|-----------------------------------------------------------------------|
|-----------------------------------------------------------------------|
|-----------------------------------------------------------------------|
|----------------------------------------------------------------|gtr 1-|
|-2-53---65---87---7/8-5/7-3/5-2-53---65---87---7/8-2-5-3---------------|
|-0-31-0-43-0-65-0-5/6-3/5-1/3-0-31-0-43-0-65-0-5/6-0-3-1---------------|
|
|----------------------------------------------------------------|
|----------------------------------------------------------------|
|----------------------------------------------------------------|
|----------------------------------------------------------------|gtr 2
|---------------------------------------------------------2-5-3--|
|---------------------------------------------------------0-3-1--|

 Riff 6b
|-----------------------------------------------------------------------|
|-----------------------------------------------------------------------|
|-----------------------------------------------------------------------|
|----------------------------------------------------------------|gtr 1-|
|-2-53---65---87---7/8-5/7-3/5-2-53---65---87---7/8-5/7-3---------------|
|-0-31-0-43-0-65-0-5/6-3/5-1/3-0-31-0-43-0-65-0-5/6-3/5-1---------------|
|
|-----------------------------------------------------------------------|
|-----------------------------------------------------------------------|
|-----------------------------------------------------------------------|
|----------------------------------------------------------------|gtr 2-|
|-2-53---65---87---7/8-5/7-3/5-2-53---65---87---7/8-5/7-3---------------|
|-0-31-0-43-0-65-0-5/6-3/5-1/3-0-31-0-43-0-65-0-5/6-3/5-1---------------|

 Riff 7
|----------------------------------------------------------------|
|----------------------------------------------------------------|
|----------------------------------------------------------------|
|----------------------------------------------------------------|gtr 1
|-------------------------------------------------------------3--|
|-0-3-1-0-4-3-0-6-5-0-5-6-3-5-1-3-0-3-1-0-4-3-0-6-5-0-5-6-3-5-1--|
| . . . . . . . . . . . . . . . . . . . . . . . . . . . . . .
|----------------------------------------------------------------|
|----------------------------------------------------------------|
|----------------------------------------------------------------|
|----------------------------------------------------------------|gtr 2
|-------------------------------------------------------------3--|
|-0-3-1-0-4-3-0-6-5-0-5-6-3-5-1-3-0-3-1-0-4-3-0-6-5-0-5-6-3-5-1--|
  . . . . . . . . . . . . . . . . . . . . . . . . . . . . . .

Ending riff
|-------------------------------------------------------------------|
|-------------------------------------------------------------------|
|-------------------------------------------------------------------|
|-------------------------------------------------------------------|gtr 1
|---------------------------------------------------------2-5-3---2-|
|-0-3-1-0-4-3-0-6-5-0-5-6-3-5-1-3-0-3-1-0-4-3-0-6-5-0-5-6-0-3-1---0-|
| . . . . . . . . . . . . . . . . . . . . . . . . . . . .
|-------------------------------------------------------------------|
|-------------------------------------------------------------------|
|-------------------------------------------------------------------|
|-------------------------------------------------------------------|gtr 2
|---------------------------------------------------------2-5-3---2-|
|-0-3-1-0-4-3-0-6-5-0-5-6-3-5-1-3-0-3-1-0-4-3-0-6-5-0-5-6-0-3-1---0-|





Comments


Popular Kataklysm tabs & chords
Feeling The Neverworld 1 Bass Tabs
The Road To Devastation Bass Tabs
The Vultures Are Watching Bass Tabs
World Of Treason 3 Bass Tabs
A View From Inside Tabs
Ambassador Of Pain Tabs
Crippled & Broken Tabs
Feared Resistance Tabs
In Shadows And Dust 1 Tabs
Resurrected 1 Tabs


Song lyrics



↑ Back to top | Tablatures and chords are parodies/interpretations of the original songs. You may use it for private study, scholarship, research or language learning purposes only
© 2014 AZChords.com Contact us | Privacy policy | DMCA | Add/correct tabs | Request tabs | Top 50 tabs