» » »

Prevail Bass tabs (ver.1)

Artists:  A B C D E F G H I J K L M N O P Q R S T U V W X Y Z # 

Prevail Bass tabs (ver.1)

Kataklysm
Rating:
4/5 (1 vote)

Tabs too difficult? Try these video lessons and learn fast.
                                               PREVAIL (Bassline)
                            As recorded by Kataklysm
                          (From the 2008 Album PREVAIL)

Words and Music by Kataklysm
Arranged by Kataklysm

Gtr I (B F# B E) - 'Stéphane Barbe'

   Intro
    Q=200
   4/4                               3/4
    Gtr I
    E E E E Q  E E   E E Q  E E E E   Q  Q  Q
||-----------------|----------------|----------|
||o----------------|----------------|----------|
||o----------------|----------------|----------|
||--0-1-0-1-3--0-1-|-0-1-0--0-1-0-1-|-3--0--1--|


 4/4                               3/4
  E E E E Q  E E   E E Q  E E E E   Q  Q  Q
|----------------|----------------|-----------||
|----------------|----------------|----------o||
|----------------|----------------|----------o||
|-0-1-0-1-3--0-1-|-0-1-0--0-1-0-1-|-3--4--3---||


 2/4
  H
|------|
|------|
|------|
|------|


   Verse
   4/4
    E E E E E E E E   E E E E E E E E   E E E E E E E E   E E E E E E E E  3x
||------------------|-----------------|-----------------|------------------||
||o-----------------|-----------------|-----------------|-----------------o||
||o-----------------|-----------------|-----------------|-----------------o||
||--1p0-0-0-0-0-0-0-|-3-0-0-0-3-0-3s4-|-1p0-0-0-0-0-0-0-|-0-0-4-0-3-0-1-0--||


  E E E E E E E E   E E E E E E E E   E E E E E E E E   E E E E E E Q
|-----------------|-----------------|-----------------|----------------|
|-----------------|-----------------|-----------------|----------------|
|-----------------|-----------------|-----------------|----------------|
|-1p0-0-0-0-0-0-0-|-3-0-0-0-3-0-3s4-|-1p0-0-0-0-0-0-0-|-0-0-4-0-3-0-1--|


    S S E S S E S S E S S E   S S E S S E S S E S S E
||--------------------------|--------------------------|
||o-------------------------|--------------------------|
||o-------------------------|-------7-7-7-------6-6-6--|
||--0-0-0-0-0-0-0-0-0-0-0-0-|-7-7-7-------6-6-6--------|


  S S E S S E S S E S S E   S S E S S E S S E S S E
|-------------------------|-------------------------|
|-------------------------|-------------------------|
|-------------------------|-------3-3-3-------------|
|-0-0-0-0-0-0-0-0-0-0-0-0-|-3-3-3-------3-3-3-1-1-1-|


  S S E S S E S S E S S E   S S E S S E S S E S S E
|-------------------------|-------------------------|
|-------------------------|-------------------------|
|-------------------------|-------7-7-7-------6-6-6-|
|-0-0-0-0-0-0-0-0-0-0-0-0-|-7-7-7-------6-6-6-------|


  S S E S S E S S E S S E   Q  Q  Q  Q
|-------------------------|--------------||
|-------------------------|-------------o||
|-------------------------|----3--------o||
|-0-0-0-0-0-0-0-0-0-0-0-0-|-3-----3--1---||


   Chorus
    Q  Q  Q  Q    Q  Q  Q  Q    Q  Q  Q  Q    Q  Q  Q  Q    4x
||--------------|-------------|-------------|---------------||
||o-------------|-------------|-------------|--------------o||
||o-------------|-------------|-------------|--------------o||
||--0--0--0--3--|-3--2--2--5--|-5--3--3--7--|-7--5--5--1----||


    E E E E E E E E   E E E E E E E E   E E E E E E E E   E E E E Q  Q    4x
||------------------|-----------------|-----------------|-----------------||
||o-----------------|-----------------|-----------------|----------------o||
||o-----------------|-----------------|-----------------|----------------o||
||--0-0-0-0-0-0-6-3-|-0-5-3-0-7-0-6-3-|-0-0-0-0-0-0-6-3-|-0-5-3-0-6--6----||


   Bridge
                                     3/4
    E E E E Q  E E   E E Q  E E E E   Q  Q  Q
||-----------------|----------------|----------|
||o----------------|----------------|----------|
||o----------------|----------------|----------|
||--0-1-0-1-3--0-1-|-0-1-0--0-1-0-1-|-3--0--1--|


 4/4                               3/4
  E E E E Q  E E   E E Q  E E E E   Q  Q  Q   4x
|----------------|----------------|-----------||
|----------------|----------------|----------o||
|----------------|----------------|----------o||
|-0-1-0-1-3--0-1-|-0-1-0--0-1-0-1-|-3--4--3---||


   Verse
   4/4
    E E E E E E E E   E E E E E E E E   E E E E E E E E   E E E E E E E E  3x
||------------------|-----------------|-----------------|------------------||
||o-----------------|-----------------|-----------------|-----------------o||
||o-----------------|-----------------|-----------------|-----------------o||
||--1p0-0-0-0-0-0-0-|-3-0-0-0-3-0-3s4-|-1p0-0-0-0-0-0-0-|-0-0-4-0-3-0-1-0--||


  E E E E E E E E   E E E E E E E E   E E E E E E E E   E E E E E E Q
|-----------------|-----------------|-----------------|----------------|
|-----------------|-----------------|-----------------|----------------|
|-----------------|-----------------|-----------------|----------------|
|-1p0-0-0-0-0-0-0-|-3-0-0-0-3-0-3s4-|-1p0-0-0-0-0-0-0-|-0-0-4-0-3-0-1--|


    S S E S S E Q  S S E   S S E Q  Q  Q
||-----------------------|----------------|
||o----------------------|----------------|
||o----------------------|----------------|
||--0-0-0-3-3-0-2--0-0-0-|-3-3-0-2--1--3--|


  S S E S S E Q  S S E   S S E Q  Q  Q
|----------------------|-----------------||
|----------------------|----------------o||
|----------------------|----------------o||
|-0-0-0-3-3-0-2--0-0-0-|-3-3-0-2--2--3---||


    S S E S S E S S E S S E   S S E S S E S S E S S E
||--------------------------|--------------------------|
||o-------------------------|--------------------------|
||o-------------------------|-------7-7-7-------6-6-6--|
||--0-0-0-0-0-0-0-0-0-0-0-0-|-7-7-7-------6-6-6--------|


  S S E S S E S S E S S E   S S E S S E S S E S S E
|-------------------------|-------------------------|
|-------------------------|-------------------------|
|-------------------------|-------3-3-3-------------|
|-0-0-0-0-0-0-0-0-0-0-0-0-|-3-3-3-------3-3-3-1-1-1-|


  S S E S S E S S E S S E   S S E S S E S S E S S E
|-------------------------|-------------------------|
|-------------------------|-------------------------|
|-------------------------|-------7-7-7-------6-6-6-|
|-0-0-0-0-0-0-0-0-0-0-0-0-|-7-7-7-------6-6-6-------|


  S S E S S E S S E S S E   Q  Q  Q  Q
|-------------------------|--------------||
|-------------------------|-------------o||
|-------------------------|----3--------o||
|-0-0-0-0-0-0-0-0-0-0-0-0-|-3-----3--1---||


   Chorus & Outro
    Q  Q  Q  Q    Q  Q  Q  Q    Q  Q  Q  Q    Q  Q  Q  Q    8x
||--------------|-------------|-------------|---------------||
||o-------------|-------------|-------------|--------------o||
||o-------------|-------------|-------------|--------------o||
||--0--0--0--3--|-3--2--2--5--|-5--3--3--7--|-7--5--5--1----||


  Q  H    Q
|--------------*|
|--------------*|
|--------------*|
|-0------------*|


Duration Legend
---------------
W - whole; H - half; Q - quarter; E - 8th; S - 16th; T - 32nd; X - 64th; a - acciaccatura
+ - note tied to previous; . - note dotted; .. - note double dotted
Uncapitalized letters represent notes that are staccato (1/2 duration)
Irregular groupings are notated above the duration line
Duration letters will always appear directly above the note/fret number it represents the
duration for.  Duration letters with no fret number below them represent rests.  Multi-
bar rests are notated in the form Wxn, where n is the number of bars to rest for.  Low
melody durations appear below the staff

Tablature Legend
----------------
 h   - hammer-on
 p   - pull-off
 b   - bend
 pb  - pre-bend
 r   - bend release (if no number after the r, then release immediately)
 /\  - slide into or out of (from/to "nowhere")
 s   - legato slide
 S   - shift slide
  - natural harmonic
[n]  - artificial harmonic
n(n) - tapped harmonic
 ~   - vibrato
 tr  - trill
 T   - tap
 TP  - trem. picking
 PM  - palm muting
\n/  - tremolo bar dip; n = amount to dip
 \n  - tremolo bar down
 n/  - tremolo bar up
/n\  - tremolo bar inverted dip
 =   - hold bend; also acts as connecting device for hammers/pulls
 <>  - volume swell (louder/softer)
 x   - on rhythm slash represents muted slash
 o   - on rhythm slash represents single note slash

Misc Legend
-----------
 |  - bar
||  - double bar
||o - repeat start
o|| - repeat end
*|  - double bar (ending)
 :  - bar (freetime)
 $  - Segno
 &  - Coda
Tempo markers -  = BPM(8/16=s8/s16), where s8 = swing 8ths, s16 = swing 16ths
            
Tabs too difficult? Try these video lessons and learn fast.




comments powered by Disqus
↑ Back to top | Tablatures and chords are parodies/interpretations of the original songs. You may use it for private study, scholarship, research or language learning purposes only