>
 >
Portraits Of Anger

Portraits Of Anger Guitar Tabs

Kataklysm - Portraits Of Anger chords, tabs, tablatures, lyrics

Guitar lessons | Add/correct | Request | Top 50 tabs Artists:  A B C D E F G H I J K L M N O P Q R S T U V W X Y Z 0-9

Portraits Of Anger Guitar Tabs – Kataklysm

CD, Sheet music, Poster

Do you like Portraits Of Anger? Share with your friends now
Tabs
Band: Kataklysm


Tuning B E A D F# B

Intro (0:02) play twice
|------|------------------------------------------------------|
|------|------------------------------------------------------|
|------|------------------------------------------------------|
|------|------------------------------------------------------|
|------|-2-----------2---------3<4>--2----------3<4>----------|
|-\\\\-|-0----6~-5~--0---0-6\5-------0----6~-5~--------3h5-3~-|
                         .

Riff 1 (0:15) play twice
|------------------------------------------------------------|
|------------------------------------------------------------|
|------------------------------------------------------------|
|------------------------------5-------------------5---------|
|-2-2----2--8--7--2-2----2-8\7-3---2-2----2--8--7--3----5----|
|-0-0----0--6--5--0-0----0-6\5-----0-0----0--6--5-------3----|
  . .    .        . .    .         . .    .

Riff 2 (0:29) 4 times
|-------------|----------|
|-------------|----------|
|-------------|----------|
|-------------|--|
|-2-2--2-3-2--|----------|
|-0-0--0-1-0--|----------|
            x

Riff 3a (0:39)
|-------------------------------------------------------------|
|-------------------------------------------------------------|
|-------------------------------------------------------------|
|--------3-5--5-------------------------3-5--5----------------|
|-2-2--2-1-3--3-2-2--2-3-----3-3-2-2--2-1-3--3-5-5--5-3-3--3--|
|-0-0--0--------0-0--0-1-111-1-1-0-0--0--------3-3--3-1-1--1--|
  .    .        .    .   ...     .    .        .

Riff 3b (0:43)
|-------------------------------------------------------------|
|-------------------------------------------------------------|
|-------------------------------------------------------------|
|--------3-5--5-----------------------3-5--5------------------|
|-2-2--2-1-3--3-2-2--2-3-3-3-3-2-2--2-1-3--3-5-5--5-3-3-3-3-3-|
|-0-0--0--------0-0--0-1-1-1-1-0-0--0--------3-3--3-1-1-1-1-1-|
  .    .        .    .         .    .        .        . . . .

Riff 3c (0:48)
|-----------------------------------------------------------|
|-----------------------------------------------------------|
|-----------------------------------------------------------|
|--------3-5--5-----------------------3-5--5----------------|
|-2-2--2-1-3--3-2-2--2-3-3-3-3-2-2--2-1-3--3-5-5--5-3-3--3--|
|-0-0--0--------0-0--0-1-1-1-1-0-0--0--------3-3--3-1-1--1--|
  .    .        .    .         .    .        .

Riff 3b x 1 (0:53)

Riff 4a (0:59)
|----------------------------------|
|----------------------------------|
|----------------------------------|
|-------------------------------5--|
|-2222222288887777222222228--7--3--|
|-0000000066665555000000006--5-----|
                          .  .
Riff 4b (1:02)
|------------------------------------------------------------------|
|------------------------------------------------------------------|
|------------------------------------------------------------------|
|-----------------------------5555----------------55555555---------|
|-2222222288887777222222228877333322222222888877773333333355555555-|
|-0000000066665555000000006655----0000000066665555--------33333333-|

Riff 4c (1:08)
|------------------------------------------------------------------|
|------------------------------------------------------------------|
|------------------------------------------------------------------|
|-----------------------------5555----------------5--5--5----------|
|-2222222288887777222222228877333322222222888877773--3--3-5--5--5--|
|-0000000066665555000000006655----0000000066665555--------3--3--3--|

Riff 3c x 1 (1:15)
Riff 3b x 1 (1:20)
Riff 3c x 1 (1:25)
Riff 3b x 1 (1:30)

Riff 5 (1:36) play 12 times
|---------------------------------|
|---------------------------------|
|---------------------------------|
|---------------------------------|
|-2--2-2-3/5-2-2-5/7-2-2-2-3-2-3\-|
|-0--0-0-1/3-0-0-3/5-0-0-0-1-0-1\-|
     . .     . .     . . .   .

Riff 4a x 1 (2:05)
Riff 4b x 2 (2:08)

Riff 6 (2:21) play twice
|--------------------------------------------------------|
|--------------------------------------------------------|
|--------------------------------------------------------|
|-------3/5--5---------------------3/5--5----------------|
|-2---2-1/3--3-2---2-2-3-2-3\2---2-1/3--3-5-5--5-3-3--3--|
|-0---0--------0---0-0-1-0-1\0---0--------3-3--3-1-1--1--|
                   . .   .                .      .

Riff 7 (2:30) 4 times
|-------------|---------|
|-------------|---------|
|-------------|---------|
|-------------|--|
|-2-2--2-3-2--|---------|
|-0-0--0-1-0--|---------|
            x

Riff 5 x 1 (2:39)

End (2:48)
|-------------|
|-------------|
|-------------|
|-------------|
|-2-2--2-3-2--|
|-0-0--0-1-0--|
            x





Comments


Popular Kataklysm tabs & chords
Feeling The Neverworld Bass Tabs
Machivellian Bass Tabs
Prevail Bass Tabs
Ambassador Of Pain 1 Tabs
Beyond Salvation Tabs
Beyond Salvation 2 Tabs
Breath To Dominate Tabs
God Head Tabs
Illuminati Tabs
In Shadows And Dust Tabs


Song lyrics



↑ Back to top | Tablatures and chords are parodies/interpretations of the original songs. You may use it for private study, scholarship, research or language learning purposes only
© 2014 AZChords.com Contact us | Privacy policy | DMCA | Add/correct tabs | Request tabs | Top 50 tabs