» » »

Machiavellian Tabs (ver.1)

Artists:  A B C D E F G H I J K L M N O P Q R S T U V W X Y Z # 

Machiavellian Tabs (ver.1)

Kataklysm
Rating:
0/5 (0 votes)

Tabs too difficult? Try these video lessons and learn fast.
                                                                               

Standard B-Tuning 


Riff I


B ||----------------------------|-----------------------------|
F#||----------------------------|-----------------------------|
D ||----------------------------|-----------------------------|
A ||----------------------------|-----------------------4-3---|
E ||---------4/5----------3/4---|---------4/5-----------2-1---|
B ||-0-0-0-0-2/3--0-0-0-0-1/2---|-0-0-0-0-2/3--0-0-0-0--------|
     x x x x      x x x x         x x x x      x x x x  


Riff Ib


B ||----------------------------|-----------------------------|
F#||----------------------------|-----------------------------|
D ||----------------------------|-----------------------------|
A ||----------------------------|-----------------------4-3---|
E ||---------4/5----------3/4---|---------4/5-----------2-1---|
B ||-0-0-0-0-2/3--0-0-0-0-1/2---|-0-0-0-0-2/3--0-0-0-0--------|
     x x x x x x  x x x x x x     x x x x x x  x x x x  x x   


Riff II


B ||----------------------------|-----------------------------|
F#||----------------------------|-----------------------------|
D ||----------------------------|-----------------------77-99-|
A ||----7--9--10-------7--9-10--|-----10--9--10-------99------|
E ||0-0--0--0----0-0-0--0--0----|-8-8---8--8-----10-10--------|
B ||----------------------------|-----------------------------|


Riff IIb

B ||----------------------------|------------------------------|
F#||----------------------------|------------------------------|
D ||----------------------------|-----------------------777999-|
A ||-7777999101010--777999101010|--101010999101010---999-------|
E ||0--------------0------------|-8----------------10----------|
B ||----------------------------|------------------------------|


...the rest will follow soon...
            
Tabs too difficult? Try these video lessons and learn fast.




comments powered by Disqus
↑ Back to top | Tablatures and chords are parodies/interpretations of the original songs. You may use it for private study, scholarship, research or language learning purposes only