» » »

I Remember Tabs (ver.1)

Artists:  A B C D E F G H I J K L M N O P Q R S T U V W X Y Z # 

I Remember Tabs (ver.1)

Kataklysm
Rating:
0/5 (0 votes)

Hard to play? Try these video lessons and learn fast.
                
Drop B tuning

(0:00 - 0:27)
|-------------------------------------------------------|
|-------------------------------------------------------|
|------999------555---------------999-------555---------|
|---777------333---------------777-------333------------|
|555------111----------777--555-------111-------777-----|
|-------------------777----------------------------777--|


(0:28 - 0:47)
|---------------------------------------------------------------------------------|
|---------------------------------------------------------------------------------|
|---------------------------------------------------------------------------------|
|---------------------------------------------------------------------------------|
|555555555555-77-88-555555555555-77-88-111111-88-77-88-1010-88-1010-1212-1010-88--|
|---------------------------------------------------------------------------------|


(0:47 - 0:56)
|-------------------------------------------------------|
|-------------------------------------------------------|
|------999------555---------------999-------555---------|
|---777------333---------------777-------333------------|
|555------111----------777--555-------111-------777-----|
|-------------------777----------------------------777--|


(0:57 - 0:58) BRIDGE
|-------------|
|-------------|
|-------------|
|-------------|
|-0-0---0-0---|
|-0-0---0-0---|


(0:58 - 1:06) HARMONICS
|------------------------------------------|
|------------------------------------------|
|------------------------------------------|
|---5*---5*---5*---5*---5*---5*---5*---5*--|
|0-0--0-0--0-0--0-0--0-0--0-0--0-0--0-0----|
|0-0--0-0--0-0--0-0--0-0--0-0--0-0--0-0----|


(1:06 - 1:07)BRIDGE
|------------|
|------------|
|------------|
|------------|
|-0-0---0-0--|
|-0-0---0-0--|

(1:08 - 1:26)
|------------------------|
|---10~---11~----13---8--|
|--9----10------12---7---|
|-7----8-------10---5----|
|5----6-------8----3-----|
|------------------------|

|-------------------------|
|---10~---11~----13---15--|
|--9----10------12---14---|
|-7----8-------10---12----|
|5----6-------8----10-----|
|-------------------------|



(1:27 - 1:44)
|--------------------------------------------|
|--------------------------------------------|
|--------------------------------------------|
|--------------------------------------------|
|-----------8---8---------------66-55-66-55--|
|87-0000-87-333-333--87-0000-87--------------|


(1:45 - 1:46) BRIDGE
|------------|
|------------|
|------------|
|------------|
|-0-0---0-0--|
|-0-0---0-0--|


(1:47 - 2:08)
|-------------------------------------------------------|
|-------------------------------------------------------|
|------999------555---------------999-------555---------|
|---777------333---------------777-------333------------|
|555------111----------777--555-------111-------777-----|
|-------------------777----------------------------777--|


(2:08 - 2:27)
|---------------------------------------------------------------------------------|
|---------------------------------------------------------------------------------|
|---------------------------------------------------------------------------------|
|---------------------------------------------------------------------------------|
|555555555555-77-88-555555555555-77-88-111111-88-77-88-1010-88-1010-1212-1010-88--|
|---------------------------------------------------------------------------------|


(2:28 - 2:47)
|------------------------|
|---10~---11~----13---8--|
|--9----10------12---7---|
|-7----8-------10---5----|
|5----6-------8----3-----|
|------------------------|


(2:48 - 3:03)
|----------------------------------------------------------|
|----------------------------------------------------------|
|----------------------------------------------------------|
|----------------------------------------------------------|
|3-0--0-0-0-0-3-0--------------3-0--0-0-0-0-3-0------------|
|3-0--0-0-0-0-3-0-88-77-88-77--3-0--0-0-0-0-3-0-8888-7777--|


(3:05 - 3:07)BRIDGE
|--------|
|--------|
|--------|
|-----0--|
|0-0--0--|
|0-0--0--|


(3:07 - 3:33)
|---------------------------------------|
|---------------------------------------|
|---------------------------------------|
|---------------------------------------|
|8-5-8-5--10-6-10-6--8-5-8-5--6-3--5-1--|
|---------------------------------------|


(3:34 - 3:38)
|------------------------------------------|
|------------------------------------------|
|------------------------------------------|
|---5*---5*---5*---5*---5*---5*---5*---5*--|
|0-0--0-0--0-0--0-0--0-0--0-0--0-0--0-0----|
|0-0--0-0--0-0--0-0--0-0--0-0--0-0--0-0----|


(3:39 - 3:42) END OF SONG
|--------------|
|--------------|
|--------------|
|-----------0--|
|0-0---0-0--0--|
|0-0---0-0--0--|
            
Hard to play? Try these video lessons and learn fast. | Correct




comments powered by Disqus
↑ Back to top | Tablatures and chords are parodies/interpretations of the original songs. You may use it for private study, scholarship, research or language learning purposes only