» » »

Kataklysm, In Shadow And Dust Tabs (ver.2)

Artists:  A B C D E F G H I J K L M N O P Q R S T U V W X Y Z # 

In Shadow And Dust Tabs (ver.2)

Kataklysm Tabs
 Rating:
4/5 (4 votes)
In Shadow And Dust lessons Tabs too difficult? Try these video lessons and learn fast
1
                kataklysm
in shadows and dust


Tuning: Drop D, down 1½ steps
	(B,F#,B,E,G#,C#)

pm: palm mute
h : hammer on
p : pull off
/ : slide up

[INTRO]				    fill...
C#|--------------------------------|------------------|
G#|--------------------------------|------------------|
E |--------------------------------|------------------|
B |-0--0-0-1-0-0-3-0-0-0-0-1h4p3---|-0--0-0-1-0-0-3---|
F#|-0--0-0-1-0-0-3-0-0-0-0-1h4p3---|-0--0-0-1-0-0-3---|
B |-0--0-0-1-0-0-3-0-0-0-0-1h4p3---|-0--0-0-1-0-0-3---|
 pm    ...   ...   .......		...   ...


[CHORUS]			    fill...
C#|--------------------------------|-----------------|
G#|--------------------------------|-----------------|
E |--------------------------------|-----------------|
B |------------------------1h4p3---|-------------3---|
F#|-000000010000030000000001h4p3---|-000000010-0-3---|
B |-000000010000030000000001h4p3---|-000000010-0-3---|


[RIFF 1]
C#|--------------------------------|
G#|--------------------------------|
E |--------------------------------|
B |-0--0-0-1-0-0-3-0-0-0-0-4-3-4-3-|
F#|-0--0-0-1-0-0-3-0-0-0-0-4-3-4-3-|
B |-0--0-0-1-0-0-3-0-0-0-0-4-3-4-3-|
 pm    ...   ...           .......


[RIFF 2]
C#|-------------------------------------------------------|
G#|-------------------------------------------------------|
E |-------------------------------------------------------|
B |-------------------------1-1-1-------------1-4-4-1-4-4-|
F#|-0000000000000000000000003-3-3-0000000000001-4-4-1-4-4-|
B |-0000000000000000000000001-1-1-0000000000001-4-4-1-4-4-|


[RIFF 3]			   Guitar #2
C#|-------------------------------|-------------------------------|
G#|-------------------------------|-------------------------------|
E |-------------------------------|-------------------------------|
B |-0-----1-0-----3-0-----1-4-3-1-|-0-----1p0-----7p0-----1/3-1p0-|
F#|-0-----1-0-----3-0-----1-4-3-1-|-------------------------------|
B |-0-----1-0-----3-0-----1-4-3-1-|-------------------------------|


[RIFF 4]			   fill...
C#|-------------------------------|------------------|
G#|-------------------------------|------------------|
E |-------------------------------|------------------|
B |-0-0-0-1-0-0-0-3-0-0-0-1-4-3-1-|-0-0-0-1-0-0-0-3--|
F#|-0-0-0-1-0-0-0-3-0-0-0-1-4-3-1-|-0-0-0-1-0-0-0-3--|
B |-0-0-0-1-0-0-0-3-0-0-0-1-4-3-1-|-0-0-0-1-0-0-0-3--|
 pm   ...   .....   ......    ...     ...   .....


Repeat Chorus X1
Repeat Riff 2
And then the ending

[ENDING]
C#|-------------------|
G#|-------------------|
E |-------------------|
B |-0-----3----6----0-|
F#|-0-----3----6----0-|
B |-0-----3----6----0-|
 pm                 .

End with:
C#|-----|
G#|-----|
E |-----|
B |-0-0-|
F#|-0-0-|
B |-0-0-|
 pm ...

keep it metal
            
Submit corrections

comments powered by Disqus
↑ Back to top | Kataklysm Tabs for In Shadow And Dust. Lyrics for acoustic guitar and electric guitar. 1 Tablatures and chords are parodies/interpretations of the original songs. You may use it for private study, scholarship, research or language learning purposes only