>
 >
Imminent Downfall

Imminent Downfall Guitar Tabs

Kataklysm - Imminent Downfall chords, tabs, tablatures, lyrics

Guitar lessons | Add/correct | Request | Top 50 tabs Artists:  A B C D E F G H I J K L M N O P Q R S T U V W X Y Z 0-9

Imminent Downfall Guitar Tabs – Kataklysm

CD, Sheet music, Poster

Do you like Imminent Downfall? Share with your friends now
Tabs
Band: Kataklysm



Tuning B E A D F# B

Intro (0:00) play 4 times
|---------------------------------|
|---------------------------------|
|---------------------------------|
|---------------------------------|
|-2/4/5---4---4-4-2/4/5\4-2-2-2-2-|
|-0/2/3-0-2-0-2-2-0/2/3\2-0-0-0-0-|
        .   .             . . . .

Riff 1 (0:10) play twice
          [x2]
|------------|---------------------------------|
|------------|---------------------------------|
|--------6---|---------------------------------|
|--------4---|---------------------------------|
|-6\4------4-|-2/4/5---4---4-4-2/4/5\4-2-2-2-2-|
|-4\2--2---2-|-0/2/3-0-2-0-2-2-0/2/3\2-0-0-0-0-|
       .             .   .             . . . .

Fill 1 (0:20)
|---------------------------------|
|---------------------------------|
|---------------------------------|
|---------------------------------|
|-2--2/3--3/4--2--2/3--3/4--2-----|
|-0--0/1--1/2--0--0/1--1/2--0-----|
                            x

Pause (0:24)

Riff 2 (0:26) play 4 times
|---------------------------|
|---------------------------|
|---------------------------|
|---------------------------|
|-2--2/3--3/4--2--2/3--3/4--|
|-0--0/1--1/2--0--0/1--1/2--|

Riff 3 (0:38)
                          [x8]                       [x4]
|----------------------------|--------------------------|
|----------------------------|--------------------------|
|----------------------------|--------------------------|
|----------------------------|--------------------------|
|-3--2--2--2-2-4/5\4--4/5\3--|--------------------------|
|-1--0--0--0-0-2/3\2--2/3\1--|-1-0-0--0---2/3\2--2/3\1--|
           . .                 . . .  .   . . .  . . .                 

Riff 4a (1:06) play 4 times
|------------------------|
|------------------------|
|------------------------|
|------------------------|
|-3-2---2---4/5\4--4/5\3-|
|-1-0---0---2/3\2--2/3\1-|
      x   x

Riff 4b (1:16)
                         [x4]                           [x4]
|----------------------------|-----------------------------|
|----------------------------|-----------------------------|
|----------------------------|-----------------------------|
|--------------4------5------|---------------4------5------|
|-3-2---2------2------3------|-3\2-2--2------2------3------|
|-1-0---0--0-0----0-0----0-0-|-1\0-0--0--0-0----0-0----0-0-|
      x    . .    . .    . .             . .    . .    . .

Riff 4c (1:36) play 4 times
|---------------------------|
|---------------------------|
|---------------------------|
|---------------------------|
|---------------------------|
|-110000--0---223322-223311-|
  ......  .   ...... ......


Riff 4a x 1 (1:45)
Riff 4b x 1 (1:55)

Fill 2 (2:05)
|-------------------------------------------------|
|-------------------------------------------------|
|-------------------------------------------------|
|-------------------------------------------------|
|-2--2--2--2--2--2--2--2--2--2--2--2--2--2--2--2--|
|-0--0--0--0--0--0--0--0--0--0--0--0--0--0--0--0--|
  .  .  .  .  .  .  .  .

Riff 5 (2:09) play 4 times
|--------------------------------------------------------------------
|--------------------------------------------------------------------
|-4--------4--------4------------------------------------------------
|-5--------5--------5/9---------9---------9----4--------4--------4-1-
|-7--------7--------7/10--------10--------10---5--5--5--5--5--5--5-2-
|----0--0-----0--0--------0--0------0--0-----------------------------
     .  .     .  .        .  .      .  .          .  .     .  .

-----------------------|
-----------------------|
-----------------------|
-2--------2--------2-4-|
-3--3--3--3--3--3--3-5-|
-----------------------|
    .  .     .  .

Riff 2 x 1 (2:40)

Fill 3 (2:45) play 4 times
|--------------------------------|
|--------------------------------|
|--------------------------------|
|--------------------------------|
|-2------------------------------|
|-0------------------------------|

Riff 2 x 1 (2:53)
First part of Riff 3 x 1 (3:06)
Fill 2 x 1 (3:25)
Riff 5 x 1 (3:29)

Riff 6 (3:59) play 4 times
|-------------------------------------------------------------------|
|-------------------------------------------------------------------|
|-------------------------------------------------------------------|
|-5-----5-----5---9------9------9----4-----4-----4---2-----2-----4--|
|---7-----7-----7---10-----10-----10---5-----5-----5---3-----3-----5|
|-----0-----0----------0------0----------0-----0---------0-----0----|

End (4:28)
|-----|
|-----|
|-4---|
|-5---|
|-7---|
|-----|





Comments


Popular Kataklysm tabs & chords
Astral Empire Bass Tabs
The Vultures Are Watching Bass Tabs
World Of Treason Bass Tabs
Eternal I Ritch Infinity Tabs
Illuminati Tabs
Let Them Burn Intro Tabs
Manifestation Tabs
Taking The World By Storm 1 Tabs
Tear Down The Kingdom Tabs
Years Of Enlightenment Decades In Darkness Tabs


Song lyrics



↑ Back to top | Tablatures and chords are parodies/interpretations of the original songs. You may use it for private study, scholarship, research or language learning purposes only
© 2014 AZChords.com Contact us | Privacy policy | DMCA | Add/correct tabs | Request tabs | Top 50 tabs