» » »

Face The Face Of War Tabs (ver.1)

Artists:  A B C D E F G H I J K L M N O P Q R S T U V W X Y Z # 

Face The Face Of War Tabs (ver.1)

Kataklysm
Rating:
0/5 (0 votes)

Hard to play? Try these video lessons and learn fast.
                Kataklysm

Intro
|-------------------|
|-------------------|
|-------------------|x2
|-4-4-4-4-4-4-4-4---|
|-2-4-4-4-4-4-4-2---|
|-2-2-2-2-2-2-2-2---|

Hardcore riff
|-------------------------------------------------|
|-------------------------------------------------|
|-------------------------------------------------|
|-4-----4-----2----4p0----------4h0---5p2---------|
|-2-222-2--2---4-2------2-222-2-----2-----2-222-2-|
|-------------------------------------------------|
  pm...          .        ...       .       ...

keep it metal..

cont'd
|-----------------------|
|-----------------------|
|-----------------------|
|--2---4p0-5p2-4p0--2---|
|-2-4-2---2---2---2---4-|
|-----------------------|

faster
|-------------------------------------------|
|-------------------------------------------|
|-------------------------------------------|
|-------------------------------------------|
|-22222-44444-55555-44444444-222222-0000000-|
|-------------------------------------------|

still fast
|-------------------------------------------|
|-------------------------------------------|
|-------------------------------------------|
|-22222-44444-55555-44444444-222222-0000000-|
|-------------------------------------------|
|-------------------------------------------|

solo rythm riff
|-------------------------|
|-------------------------|
|-------------------------|
|-5----5-0----2-----2-0---|repeat several times
|-5----5-0----2-----2-0---|
|-3----3------0-----0-----|

'solo' riff
|-------------------------------------------|
|-------------------------------------------|
|-----------------------------------------7-|
|-----------7---------9---------10----------|
|-7-10-9-10---10-9-10---10-9-10----10-9-10--|
|-------------------------------------------|

|----------------------------------------|
|----------------------------------------|
|----------------------------------------|
|---------10---------9---------7---------|
|-10-9-10---10-9-10---10-9-10----10-9-10-|
|----------------------------------------|
            
Hard to play? Try these video lessons and learn fast. | Correct




comments powered by Disqus
↑ Back to top | Tablatures and chords are parodies/interpretations of the original songs. You may use it for private study, scholarship, research or language learning purposes only