» » »

Kataklysm, Caged In Tabs (ver.1)

Artists:  A B C D E F G H I J K L M N O P Q R S T U V W X Y Z # 

Caged In Tabs (ver.1)

Kataklysm Tabs
Rating:
0/5 (0 votes)
Caged In lessons Tabs too difficult? Try these video lessons and learn fast
                Tuning B E A D F# B

Intro A (0:00) play twice
|---------------------------------|
|---------------------------------|
|---------------------------------|
|---------------------------------|
|-------2-----------2---------3---|
|-0-0-0-0-----0-0-0-0---0-0-0-1---|
  . . .  x    . . . .   . . .


Intro B (0:05) play twice
|---------------------------------|
|---------------------------------|
|---------------------------------|
|---------------------------------| gtr 1
|-------2-----------2---------3---|
|-0-0-0-0-----0-0-0-0---0-0-0-1---|
  . . .  x    . . .     . . .

|---------------------------------|
|---------------------------------|
|---------------------------------|
|---------------------------------| gtr 2
|-------------------2---------3---|
|-0000000000000000000---0-0-0-1---|
                        . . .

Riff 1 (0:10) play twice
|-------------------------------------------------------------------
|-------------------------------------------------------------------
|--------------------------4------4---------4------4----------------
|--------------------------5------5---------5------5----------------
|-----2--2---------2-------7------7---------7------7------9---------
|-000-0--0-----000-0---000----000-------000----000----000-7-----000-
  ...          ...     ...    ...       ...    ...    ...       ...

--------------------------------------|
--------------------------------------|
--------------------------------------|
---------------10---------10------10--|
-9------9------9----------9-------9---|
-7--000-7--000-8------000-8---000-8---|
    ...    ...        ...     ...

Riff 2a (0:32)
|-----------------------------------------------------------------|
|-----------------------------------------------------------------|
|-----------------------------------------------------------------|
|-----------------------------------------------------------------|
|-5\2-----2---------------8---8---5\2-----2-------2/3-----3/5-----|
|-3\0-0-0-0-0-0-0-0-0-0-0-6-0-6-0-3\0-0-0-0-0-0-0-0/1-1-1-1/3-3-3-|
      . .   . . . . . . .   .   .     . .   . . .     . .     . .

Riff 2b (0:37)
|-----------------------------------------------------------------|
|-----------------------------------------------------------------|
|-----------------------------------------------------------------|
|-----------------------------------------------------------------|
|-5\2-----2---------------8---8---6\5-----5-------5/8-----8\7-----|
|-3\0-0-0-0-0-0-0-0-0-0-0-6-0-6-0-4\3-3-3-3-3-3-3-3/6-6-6-6\5-5-5-|
      . .   . . . . . . .   .   .     . .   . . .     . .     . .

Riff 2a x 1 (0:42)
Riff 2b x 1 (0:47)

Riff 3a (0:52)
|-------------------------------------------|
|-------------------------------------------|
|-------------------------------------------|
|-------5--------4-----------------0--------|
|----2--------2--------2--3-----2--------3--|
|-0--------0--------0--------0--------3-----|

Riff 3b (0:57)
|-------------------------------------------|
|-------------------------------------------|
|-------------------------------------------|
|-------5--------4-----------------0--------|
|----2--------2--------2--3-----2-----1-----|
|-0--------0--------0--------0-----------1--|

Riff 3a x 1 (1:01)
Riff 3b x 1 (1:05)
Riff 2a x 1 (1:10)
Riff 2b x 1 (1:15)
Riff 2a x 1 (1:20)
Riff 2b x 1 (1:25)
Riff 1 x 1 (1:31)

Fill 1 (1:52)
|----------------------------------|
|----------------------------------|
|----------------------------------|
|----------------------------------|
|----------------------------------|
|-00000000000000000000000000000000-|

Riff 4 (1:55) play 4 times
|------------------------------------------------------------------|
|------------------------------------------------------------------|
|------------------------------------------------------------------|
|-44444455555544422244444444444444444444555555444222444444---------|
|-2222222222222222222222223333333322222222222222222222222255555555-|
|---------------------------------------------------------55555555-|

Riff 5 (2:14) play 4 times
|---------------------------------------------------------|
|---------------------------------------------------------|
|---------------------------------------------------------|
|-4-4--5-4-4--4-4-4--4-4-4--4-4-4--5-4-4--4-4-4--4--------|
|-2-2--2-2-2--2-2-2--2-3-3--3-2-2--2-2-2--2-2-2--2-5-5--5-|
|--------------------------------------------------5-5--5-|
  . .  . . .  . . .  . . .  . . .  . . .  . . .  . . .  .

Riff 6 (2:34) play 2 times
|------------------------------------------------------------------|
|------------------------------------------------------------------|
|------------------------------------------------------------------|
|-6-6-7-7-6-6-5-5-6-6-6-6-7-7-7-7-6-6-7-7-6-6-5-5-6-6-6-6----------|
|-4-4-4-4-4-4-4-4-4-4-4-4-4-4-4-4-4-4-4-4-4-4-4-4-4-4-4-4-7-7-7-7--|
|---------------------------------------------------------7-7-7-7--|
  . . . . . . . . . . . . . . . . . . . . . . . . . . . . . . . .

Fill 1 x 1 (2:44)
Riff 1 x 2 (2:46)
Intro x 1 (3:28)
End (3:35)
            
Submit corrections

comments powered by Disqus
↑ Back to top | Kataklysm Tabs for Caged In. Lyrics for acoustic guitar and electric guitar. Tablatures and chords are parodies/interpretations of the original songs. You may use it for private study, scholarship, research or language learning purposes only