>
 >
Breath To Dominate

Breath To Dominate Guitar Tabs

Kataklysm - Breath To Dominate chords, tabs, tablatures, lyrics

Guitar lessons | Add/correct | Request | Top 50 tabs Artists:  A B C D E F G H I J K L M N O P Q R S T U V W X Y Z 0-9

Breath To Dominate Guitar Tabs – Kataklysm

CD, Sheet music, Poster

Do you like Breath To Dominate? Share with your friends now
Tabs
BREATH TO DOMINATE
Tune down 2  steps
(B-E-A-D-F#-B)

__=palmute
=tremble pick
p=pull off

Intro a
|------------------------------------------------------------|
|------------------------------------------------------------|
|------------------------------------------------------------|
|------------------------------------------------------------|
|-2----2----2----2----2----2----2----2----2------------------|
|-0-00-0-00-0----0-00-0-00-0----0-00-0-00-0--0-6-5-3-|
    __   __        __   __        __   __


 Intro a
 Intro b

riff 1
|---------------------------------------------------------------------|
|---------------------------------------------------------------------|
|---------------------------------------------------------------------|
|---------------------------------------------------------------------|
|-2----3----3/5---2----3---3/5--2----3---3/5--------------------------|
|-0-00-1-0--1/3---0-00-1-0-1/3--0-00-1-0-1/3--6-5-3-6-5-3-|
    __   _          __   _        __   _


 Riff 2 a                               x2    Riff 2 b                                     x2
|-----------------------------------------|------------------------------------------------------|
|-----------------------------------------|------------------------------------------------------|
|-----------------------------------------|------------------------------------------------------|
|---3--3--3----5--5--5---7--7--7--8-7-|-5-7-5-7-5-7---7-9-7-9-7-9--9-10-9-10-9-10-12-10-9|
|-5--5--5----7--7--7---8--8--8---10-8-|----------------------------12-10-----------------|
|-----------------------------------------|------------------------------------------------------|

Fill
|-------|
|-------|
|-------|
|-------|
|-4-3-1-|
|-6-5-3-|

Intro riff


Riff 3                       x8
|------------------------------|
|------------------------------|
|------------------------------|
|------------------------------|
|-2----3-----------------------|
|-0-00-1-000--6p5p3--6p5p36p5-|
    __   ___

Riff 4            x4
|--------------------|
|--------------------|
|--------------------|
|-5---7---9----10----|
|-7-9-10-12--|
|--------------------|

Riff 4 (Guitar 1)
|-----------------------------------------------------|
|-----------------------------------------------------|
|-----------------------------------------------------|
|-5-----4-5-----7-5--10-9----------7-----5-4----------|
|------------------------------10------------5--------|
|---00------00--------------00--------00--------------|
    __      __              __        __

Riff 4 (Guitar 2)
|-----------------------------------------------------|
|-----------------------------------------------------|
|-----------------------------------------------------|
|-----------------------------------------------------|
|-7----5-7-----9-7--12-10---------9------7-5----------|
|---00-----00--------------00--12----00------7--------|
    __     __              __        __

Play Riff 4 two times then play
It again without palmutes and
Tremblo pick notes

Riff 1
Riff 2 a/b
Fill
Riff 4

End with
|---|
|---|
|---|
|---|
|-2-|
|-0-|





Comments


Popular Kataklysm tabs & chords
Astral Empire Bass Tabs
10 Seconds From The End Tabs
A View From Inside Tabs
As The Glorious Weep Intro Tabs
Caged In Tabs
In Shadows And Dust 1 Tabs
Like Angels Weeping Tabs
Sorcery Tabs
The Night They Returned Tabs
Where The Enemy Sleeps 1 Tabs


Song lyrics



↑ Back to top | Tablatures and chords are parodies/interpretations of the original songs. You may use it for private study, scholarship, research or language learning purposes only
© 2014 AZChords.com Contact us | Privacy policy | DMCA | Add/correct tabs | Request tabs | Top 50 tabs