» » »

Kataklysm, Breath To Dominate Tabs (ver.1)

Artists:  A B C D E F G H I J K L M N O P Q R S T U V W X Y Z # 

Breath To Dominate Tabs (ver.1)

Kataklysm Tabs
 Rating:
4.3/5 (6 votes)
Breath To Dominate lessons Tabs too difficult? Try these video lessons and learn fast
1
                BREATH TO DOMINATE
Tune down 2 ½ steps
(B-E-A-D-F#-B)

__=palmute
‘’=tremble pick
p=pull off

Intro a
|------------------------------------------------------------|
|------------------------------------------------------------|
|------------------------------------------------------------|
|------------------------------------------------------------|
|-2----2----2----2----2----2----2----2----2------------------|
|-0-00-0-00-0----0-00-0-00-0----0-00-0-00-0--0’’-6’’-5’’-3’’-|
    __   __        __   __        __   __


 Intro a
 Intro b

riff 1
|---------------------------------------------------------------------|
|---------------------------------------------------------------------|
|---------------------------------------------------------------------|
|---------------------------------------------------------------------|
|-2----3----3/5---2----3---3/5--2----3---3/5--------------------------|
|-0-00-1-0--1/3---0-00-1-0-1/3--0-00-1-0-1/3--6’’-5’’-3’’-6’’-5’’-3’’-|
    __   _          __   _        __   _


 Riff 2 a                               x2    Riff 2 b                                     x2
|-----------------------------------------|------------------------------------------------------|
|-----------------------------------------|------------------------------------------------------|
|-----------------------------------------|------------------------------------------------------|
|---3--3--3----5--5--5---7--7--7--8’’-7’’-|-5-7-5-7-5-7---7-9-7-9-7-9--9-10-9-10-9-10-12-10’’-9’’|
|-5--5--5----7--7--7---8--8--8---10’’-8’’-|----------------------------12’’-10’’-----------------|
|-----------------------------------------|------------------------------------------------------|

Fill
|-------|
|-------|
|-------|
|-------|
|-4-3-1-|
|-6-5-3-|

Intro riff


Riff 3                       x8
|------------------------------|
|------------------------------|
|------------------------------|
|------------------------------|
|-2----3-----------------------|
|-0-00-1-000--6p5p3--6p5p3—6p5-|
    __   ___

Riff 4            x4
|--------------------|
|--------------------|
|--------------------|
|-5---7---9----10----|
|-7’’-9’’-10’’-12’’--|
|--------------------|

Riff 4 (Guitar 1)
|-----------------------------------------------------|
|-----------------------------------------------------|
|-----------------------------------------------------|
|-5-----4-5-----7-5--10-9----------7-----5-4----------|
|------------------------------10------------5--------|
|---00------00--------------00--------00--------------|
    __      __              __        __

Riff 4 (Guitar 2)
|-----------------------------------------------------|
|-----------------------------------------------------|
|-----------------------------------------------------|
|-----------------------------------------------------|
|-7----5-7-----9-7--12-10---------9------7-5----------|
|---00-----00--------------00--12----00------7--------|
    __     __              __        __

Play Riff 4 two times then play
It again without palmutes and
Tremblo pick notes

Riff 1
Riff 2 a/b
Fill
Riff 4

End with
|---|
|---|
|---|
|---|
|-2-|
|-0-|
            
Submit corrections

comments powered by Disqus
↑ Back to top | Kataklysm Tabs for Breath To Dominate. Lyrics for acoustic guitar and electric guitar. 1 Tablatures and chords are parodies/interpretations of the original songs. You may use it for private study, scholarship, research or language learning purposes only