» » »

Kataklysm, Astral Empire Bass tabs (ver.1)

Artists:  A B C D E F G H I J K L M N O P Q R S T U V W X Y Z # 

Astral Empire Bass tabs (ver.1)

Kataklysm Tabs
 Rating:
4/5 (4 votes)
Astral Empire lessons Tabs too difficult? Try these video lessons and learn fast
1
                Tuning: B E A D

IntroRiff 1 (0:07) 
D|------|-------------------|
A|------|-------------------|
E|------|-----7~-10~-7~-5~--|
B|--0~--|--0~---------------|

Riff 2 (0:39)
D|--------------------------------------------------------------|
A|--------------------------------------------------------------|
E|--------------------------------------------------------------|
B|--0-3-2-0-2-3-2--0-3-2-0-3-5-2--0-3-2-0-2-3-0--5~-7-5-3~-5-3--|

Riff 3 (0:52)
D|----------------------------------------------------------------|
A|-----------------------9-10-7-9---------12-10-9-10-9-7-9-7-7-9--|
E|--7-9-7-----7-9--7-9-7-----------7-9-7--------------------------|
B|--------7-8-----------------------------------------------------|

Riff 4 (1:08)
D|--------------------------------------------------------|
A|--------------------------------------------------------|
E|--------------------------------------------------------|
B|--0000-0000-3-0----0000-3-0----0000-3-0-----0000-2-3-2--|

Riff 5 (1:38)
D|--------------------------------|
A|--7-9-10-9-7-9-10-12-10-9-10p9--|
E|--------------------------------|
B|--------------------------------|

D|---------------------------|
A|--7-9-10-9-7-9-10-12-10-9--|
E|---------------------------|
B|---------------------------|

Riff 2 (2:26)
Riff 3 (2:44)
Riff 1 (2:59)

End (3:28)
D|----------|
A|----------|
E|----------|
B|--0000-0--|
            
Submit corrections

comments powered by Disqus
↑ Back to top | Kataklysm Bass for Astral Empire. Lyrics for acoustic guitar and electric guitar. 1 Tablatures and chords are parodies/interpretations of the original songs. You may use it for private study, scholarship, research or language learning purposes only