>
 >
As My World Burns

As My World Burns Bass Tabs

Kataklysm - As My World Burns chords, tabs, tablatures, lyrics

Guitar lessons | Add/correct | Request | Top 50 tabs Artists:  A B C D E F G H I J K L M N O P Q R S T U V W X Y Z 0-9

As My World Burns Bass Tabs – Kataklysm

CD, Sheet music, Poster

Do you like As My World Burns? Share with your friends now
Bass TabsTabs
Intro (0:00)
D|-------------------|
A|-------------------|
E|------------3-2-0--|
B|--0-0-3-2-2--------|

Riff 1 (0:14)
D|-------------------------------------------|
A|-------------------------------------------|
E|------2----3----2-3-5-----2----3----3-2-0--|
B|--000---00---00-------000---00---00--------|

D|------------------------------------------|
A|------------------------------------------|
E|------2----2----2--------3----3----3-2-0--|
B|--333---33---33---33-222---22---22--------|

Fill 1 (0:40)
D|------------------|
A|------------------|
E|---------------1--|
B|--3-3-3--2-3-3----|

Riff 2 (0:47)
D|----------|
A|----------|
E|-------1--|
B|--2-33----|

Riff 1 (1:13)

Fill 2 (1:25)
D|---------------------|
A|---------------------|
E|--------------3-2-0--|
B|--0-0-3-3-2-2--------|

Riff 3 (1:37)
D|----------------------------|
A|----------------------------|
E|----------------------------|
B|--0h3p2-0h3p2-0h3p2-666666--|

Riff 2 (2:03)

Riff 4 (2:23) (under the guitar noise)
D|------------|
A|------------|
E|------------|
B|--00000000--|

Riff 5 (2:35)
D|-------------------|
A|-------------------|
E|-------------------|
B|--333-222-555-666--|

Riff 4 Variation (3:00) (If you listen close he just repeats this slide)
D|--------|
A|--------|
E|--------|
B|--0/12--|

Riff 5 (3:12)
Fill 1 (3:36)
Riff 2 (3:43)
Riff 1 (4:09)

Fill 2 (4:35)
D|----------|
A|----------|
E|----------|
B|--0~--0~--|

Riff 6 (4:48)
D|---------------------------------------|
A|---------------------------------------|
E|-----------------------------77-99-77--|
B|--0~-000-10~-10-10-10-9~-999-----------|





Comments


Popular Kataklysm tabs & chords
Stormland 2 Bass Tabs
World Of Treason 1 Bass Tabs
A View From Inside Tabs
As The Glorious Weep Intro Tabs
Beyond Salvation Tabs
Courage Through Hope Tabs
Eternal I Ritch Infinity Tabs
It Turns To Rust Tabs
Resurrected 1 Tabs
Road To DevastationSolo Tabs


Song lyrics



↑ Back to top | Tablatures and chords are parodies/interpretations of the original songs. You may use it for private study, scholarship, research or language learning purposes only
© 2014 AZChords.com Contact us | Privacy policy | DMCA | Add/correct tabs | Request tabs | Top 50 tabs