» » »

Kat, Odi Profanum Vulgus Tabs (ver.1)

Artists:  A B C D E F G H I J K L M N O P Q R S T U V W X Y Z # 

Odi Profanum Vulgus Tabs (ver.1)

Kat Tabs
Rating:
0/5 (0 votes)
Odi Profanum Vulgus lessons Tabs too difficult? Try these video lessons and learn fast
                Kat 
it's f**kin' great song is called "Odi Profanum Vulgus"


all the song is going something like this. Just listen it to put it and play in the right order. Enjoy!!!!



Intro (x2)
|-------------------------------------------------------|
|-------------------------------------------------------|
|-------------------------------------------------------|
|-------------------------------------------------------|
|-2---------7h8p7~--------------7-----7h8p7-------------|
|-0-------0-------0-0-5-6-7-0-0---0-0-------0---0-5-6-7-|



|-------------------------------------------------------|
|-------------------------------------------------------|
|-------------------------------------------------------|
|-------------------------------------------------------|
|-2---------7h8p7~---------------------8h10p8~----------|
|-0-------0-----------------0-0------0------------------|

|---------------------------------------------------------------|
|---------------------------------------------------------------|
|---------------------------------------------------------------|
|---------------------------------------------------------------|
|-2---------7-8-7----------------------8h10p8~--------3-2-------|
|-0-------0-----------------0-0------0--------0-0-0-0-----3~~---|




|---------------------------------|
|---------------------------------|
|---------------------------------|
|---------------------------------|
|---7---7-----7-----7-----8-------|
|-0---0---0-0---0-0---0-0-----6~--|

|---------------------------------------------------|
|---------------------------------------------------|
|---------------------------------------------------|
|---------------------------------------------------|
|---7---7-----7-----7-----8-----------8----------8~-|
|-0---0---0-0---0-0---0-0-----6~--6666----6666-6----|



Dzieki panie...
|---------------------------------|
|---------------------------------|
|---------------------------------|
|---------------------------------|
|---7---7-----7-----7-----8-------|
|-0---0---0-0---0-0---0-0-----6~--|

|-----------------------------------------|
|-----------------------------------------|
|-----------------------------------------|
|---------------------------------------2-|
|---7---7-----7-----7-------------2-3-5---|
|-0---0---0-0---0-0---0-0-0-2-3-5---------|



Ja nie skamle, nie...
|-------------------------------------------------------|
|-------------------------------------------------------|
|-------------------------------------------------------|
|-------------------------------------------------------|
|-2---------7h8p7~---------------------8h10p8~----------|
|-0-------0-----------------0-0------0------------------|

|---------------------------------------------------------------|
|---------------------------------------------------------------|
|---------------------------------------------------------------|
|---------------------------------------------------------------|
|-2---------7-8-7----------------------8h10p8~--------3-2-------|
|-0-------0-----------------0-0------0--------0-0-0-0-----3~~---|

Jestem smieszny czort...
|-------------------------------------------------------|
|-------------------------------------------------------|
|-------------------------------------------------------|
|-------------------------------------------------------|
|-2---------7h8p7~---------------------8h10p8~----------|
|-0-------0-----------------0-0------0------------------|

|---------------------------------------------------------------|
|---------------------------------------------------------------|
|---------------------------------------------------------------|
|---------------------------------------------------------------|
|-2------------------------------------------------------3-2----|
|-0-0---0---0---0---0-0-0-------0-0---0---0---0-0-0----------3~-|




|--------------------------|
|--------------------------|
|--------------------------|
|--------------------------|
|-2----------5h7-----------|
|-0--------0-------0---3h5-|
            
Submit corrections

comments powered by Disqus
↑ Back to top | Kat Tabs for Odi Profanum Vulgus. Lyrics for acoustic guitar and electric guitar. Tablatures and chords are parodies/interpretations of the original songs. You may use it for private study, scholarship, research or language learning purposes only