>
 >
 >
Dziewczyna W Cierniowej Koronie Intro

Dziewczyna W Cierniowej Koronie Intro Guitar Tabs

Kat - Dziewczyna W Cierniowej Koronie Intro chords, tabs, tablatures, lyrics

Guitar lessons | Add/correct | Request | Top 50 tabs Artists:  A B C D E F G H I J K L M N O P Q R S T U V W X Y Z 0-9

Dziewczyna W Cierniowej Koronie Intro Guitar Tabs – Kat

CD, Sheet music, Poster

Do you like Dziewczyna W Cierniowej Koronie Intro? Share with your friends now
Tabs
               Q    E  E  Q    E  E     Q    E  E  Q    E  E   
E||-------||-------------------------|------------------------|
B||-------||-------------------------|------------------------|
G||-------||*------------------------|------------------------|
D||-------||*--7----7--7--7----7--7--|--5----5--5--5----5--5--|
A||-------||---7----7--7--7----7--7--|--5----5--5--5----5--5--|
E||-------||---5----5--5--5----5--5--|--3----3--3--3----3--3--|


  Q    E  E  Q    E  E     Q    E  E  Q    E  E     Q    E  E  Q    E  E   
------------------------|------------------------|------------------------|
------------------------|------------------------|------------------------|
------------------------|------------------------|------------------------|
--8----8--8--8----8--8--|--7----7--7--7----7--7--|--8----8--8--8----8--8--|
--8----8--8--8----8--8--|--7----7--7--7----7--7--|--8----8--8--8----8--8--|
--6----6--6--6----6--6--|--5----5--5--5----5--5--|--6----6--6--6----6--6--|


  Q    E  E  Q    E  E     E  E  E  E  E  E  E  E   
------------------------|--------------------------|
------------------------|--------------------------|
------------------------|--------------------------|
--2----2--2--2----2--2--|--3--3--3--3--3--3--3--3--|
--2----2--2--2----2--2--|--3--3--3--3--3--3--3--3--|
--0----0--0--0----0--0--|--1--1--1--1--1--1--1--1--|


  E  E  E  E  E  E  E  E        E  E  E  E  S S E  Q     
---------------------------||---------------------------|
---------------------------||---------------------------|
--------------------------*||*--------------------------|
--4--4--4--4--4--4--4--4--*||*--7-----------7-7-8--L----|
--4--4--4--4--4--4--4--4---||---7-----------7-7-8--L----|
--2--2--2--2--2--2--2--2---||---5-----------5-5-6--L----|


  E  E  E  E  S S E  Q     3x  E  E  E  E  S S E  Q     
---------------------------||--------------------------|
---------------------------||--------------------------|
--------------------------*||--------------------------|
--9-----------7-7-5--L----*||--7-----------7-7-8--L----|
--9-----------7-7-5--L-----||--7-----------7-7-8--L----|
--7-----------5-5-3--L-----||--5-----------5-5-6--L----|


  E  E  E  E  S S E  E  S S  
----------------------------|
----------------------------|
----------------------------|
--9-----------7-7-5--L--5-2-|
--9-----------7-7-5--L--5-2-|
--7-----------5-5-3--L--3-0-|


    S S T T T T T T T T S S T T T T S S T T T T E   7x
|---------------------------------------------------||
|---------------------------------------------------||
|*-------------------------------------------------*||
|*----------------------5-4---------4-5---------9--*||
|-----------------------3-2---------2-3---------7---||
|---0-0-0-0-0-0-0-0-0-0-----0-0-0-0-----0-0-0-0-----||


  S S T T T T T T T T H        E   
----------------------------------|
----------------------------------|
----------------------------------|
----------------------7--------L--|
----------------------5--------L--|
--0-0-0-0-0-0-0-0-0-0-------------|


    S S T T T T T T T T T T S S S T T T T T T T T T T S  
|-------------------------------------------------------|
|-------------------------------------------------------|
|*------------------------------------------------------|
|*------------------------------------------------------|
|-------------------------------------------------------|
|---0-2-2-2-2-2-2-2-2-2-2-2-2-0-2-2-2-2-2-2-2-2-2-2-2-2-|


  S S T T T T T T T T T T S S S T T T T T T T T T T S  4x
-------------------------------------------------------||
-------------------------------------------------------||
------------------------------------------------------*||
------------------------------------------------------*||
----------------------------2-0-0-0-0-0-0-0-0-0-0-0-0--||
--5-2-2-2-2-2-2-2-2-2-2-2-2----------------------------||


  Q    E  S S H           Q    E  S S H             E  E  E  E  E  E  S S S S  
-----------------------|-----------------------||-----------------------------|
-----------------------|-----------------------||-----------------------------|
-----------------------|-----------------------||*----------------------------|
--7----L------5--------|--2----L------5--------||*--4-----4-----4-----4-5-4-2-|
--7----L------5--------|--2----L------5--------||---4-----4-----4-----4-5-4-2-|
--5----L--0-0-3--------|--0----L--0-0-3--------||---2-----2-----2-----2-3-2-0-|


  E  E  E  E  E  E  Q       
--------------------------||
--------------------------||
-------------------------*||
--4-----4-----4-----7----*||
--4-----4-----4-----7-----||
--2-----2-----2-----5-----||


   S S T T T T T T T T S S T T T T S S T T T T E   3x
---------------------------------------------------||
---------------------------------------------------||
*-------------------------------------------------*||
*----------------------5-4---------4-5---------9--*||
-----------------------3-2---------2-3---------7---||
---0-0-0-0-0-0-0-0-0-0-----0-0-0-0-----0-0-0-0-----||


  S S T T T T T T T T H        E   
----------------------------------|
----------------------------------|
----------------------------------|
----------------------7--------L--|
----------------------5--------L--|
--0-0-0-0-0-0-0-0-0-0-------------|


    S S T T T T T T T T T T S S S T T T T T T T T T T S  
|-------------------------------------------------------|
|-------------------------------------------------------|
|*------------------------------------------------------|
|*------------------------------------------------------|
|-------------------------------------------------------|
|---0-2-2-2-2-2-2-2-2-2-2-2-2-0-2-2-2-2-2-2-2-2-2-2-2-2-|


  S S T T T T T T T T T T S S S T T T T T T T T T T S  4x
-------------------------------------------------------||
-------------------------------------------------------||
------------------------------------------------------*||
------------------------------------------------------*||
----------------------------2-0-0-0-0-0-0-0-0-0-0-0-0--||
--5-2-2-2-2-2-2-2-2-2-2-2-2----------------------------||


  Q    E  S S H           Q    E  S S H             E  E  E  E  E  E  S S S S  
-----------------------|-----------------------||-----------------------------|
-----------------------|-----------------------||-----------------------------|
-----------------------|-----------------------||*----------------------------|
--7----L------5--------|--2----L------5--------||*--4-----4-----4-----4-5-4-2-|
--7----L------5--------|--2----L------5--------||---4-----4-----4-----4-5-4-2-|
--5----L--0-0-3--------|--0----L--0-0-3--------||---2-----2-----2-----2-3-2-0-|


  E  E  E  E  E  E  Q       
--------------------------||
--------------------------||
-------------------------*||
--4-----4-----4-----7----*||
--4-----4-----4-----7-----||
--2-----2-----2-----5-----||





Comments


Popular Kat tabs & chords
Whereve You Been Chords
Book Tabs
Koziolek Matolek Tabs
Odi Profanum Vulgus Tabs
Whereve You Been Ukulele


Song lyrics



↑ Back to top | Tablatures and chords are parodies/interpretations of the original songs. You may use it for private study, scholarship, research or language learning purposes only
© 2014 AZChords.com Contact us | Privacy policy | DMCA | Add/correct tabs | Request tabs | Top 50 tabs