» » »

Surfing The Warm Industry Bass tabs (ver.1)

Artists:  A B C D E F G H I J K L M N O P Q R S T U V W X Y Z # 

Surfing The Warm Industry Bass tabs (ver.1)

Kashmir
Rating:
0/5 (0 votes)

Hard to play? Try these video lessons and learn fast.
                -------------------------------------------------------------------------------
			     Surfing the Warm Industry - Kashmir
-------------------------------------------------------------------------------


Tuning:standard

Verse: (the first one sounds like sampled, but it sounds good if you play the notes with palm mute)

G|---------------------------------------------------------------------------|
D|---------------------------------------------------------------------------|
A|---------------------------------------------------------------------------|
E|--6-6-6-6-6-6-6-6-6-6-6-6-6-6-3-3-3-3-3-3-3-3-3-3-3-3-3-3------------------|

chorus:

G|---------------------------------------------------------------------------|
D|---------------------------------------------------------------------------|
A|--7-7-7-7-7-7-7-7-6-6-6-6-6-6-6-3-3-3-3-3-3-3-0-0-0-0-0-0-0-3-3-3-3--------|
E|---------------------------------------------------------------------------|

G|---------------------------------------------------------------------------|
D|---------------------------------------------------------------------------|
A|--7-7-7-7-7-7-7-7-0-0-0-3-3-3-5-5-5----------------------------------------|
E|---------------------------------------------------------------------------|

ending: (same as verse but with different rythm)

G|---------------------------------------------------------------------------|
D|---------------------------------------------------------------------------|
A|---------------------------------------------------------------------------|
E|--6-6-6-6--6-6-6-6--6-6-6-6--3-3-3-3--3-3-3-3--3-3-3-3---------------------|


song progression:
verse
chorus
verse
chorus
ending
===============================================================================
            
Hard to play? Try these video lessons and learn fast. | Correct




comments powered by Disqus
↑ Back to top | Tablatures and chords are parodies/interpretations of the original songs. You may use it for private study, scholarship, research or language learning purposes only