>
 >
Star In My Movie

Star In My Movie Bass Tabs

Kashmir - Star In My Movie chords, tabs, tablatures, lyrics

Guitar lessons | Add/correct | Request | Top 50 tabs Artists:  A B C D E F G H I J K L M N O P Q R S T U V W X Y Z 0-9

Star In My Movie Bass Tabs – Kashmir

CD, Sheet music, Poster

Do you like Star In My Movie? Share with your friends now
Bass TabsTabs
Kashmir - Star in my Movie

Intro

|-----------------------------6h7----------------------------------|
|---------------------------------5----------------------------5-5-|
|-----7----9h10--7-------7---------------7----9h10--7---7-6-7------|
|-7-9---7------------7-9---7---------7-9---7-----------------------|

|-----------------------------6h7----------------------------------|
|---------------------------------5-----------------------------5-5|
|-----7----9h10--7-------7---------------7----9h10--7---7-6-66-----|
|-7-9---7------------7-9---7---------7-9---7-----------------------|


1st Verse

|-------------13----------------------------13---------------------|
|------------------------------------------------------------------|
|-777--------------------------------------------------------------|
|-----7/12-12---12--555-5--333-3--007/12-12---12--555-5--333-3-3\--|

|----------13---------------------------13-------------------------|
|------------------------------------------------------------------|
|------------------------------------------------------------------|
|-0-7/12-12--12--555-5--333-3--007/12-12--12--555-55-333-3---------|

|----------13---------------------------13-------------------------|
|------------------------------------------------------------------|
|------------------------------------------------------------------|
|-0-7/12-12--12--555-5--333-3--0-7/12-12--12--555-55-333-33--------|

|----------13------------------------------------------------------|
|------------------------------------------------------------------|
|----------------7--5-5--5--------------------------2--2--2--2-----|
|-0-7/12-12--12-------------5-5--5--3-3-3-3-3-3-3-3----------------|


You may think...
|-6--6--6--6--5--5--5--5--------------------------|
|-6--6--6--6--5--5--5--5--2--2--2--2--6--6--6--6--|
|-4--4--4--4--3--3--3--3--2--2--2--2--6--6--6--6--|
|-------------------------0--0--0--0--4--4--4--4--|

|-------------------------------------------13-------------------|
|----------------------------------------------------------------|
|----------------------------------------------------------------|
|-005-005-005-005-5--5--5--5---0--2-4-5-7-12--12--5-5--5--333-3-3|

|----------13--------------------|
|--------------------------------|
|--------------------------------|
|-0-7/12-12--12--555-5-5-3-3-3-3-|


2nd Verse

|-----------13----------------------------13--------------------|
|---------------------------------------------------------------|
|---------------------------------------------------------------|
|-0-7/12-12---12--555-5--333-3--007/12-12---12--555-5--333-3----|

|-------------13----------------------------13------------------|
|---------------------------------------------------------------|
|-777-----------------------------------------------------------|
|-----7/12-12---12--555-5--333-3--007/12-12---12--555-5--3-3-3-3|

Now you see that...
|-6--6--6--6--5--5--5--5--------------4--4--4--4--|
|-6--6--6--6--5--5--5--5--5--5--5--5--4--4--4--4--|
|-4--4--4--4--3--3--3--3--5--5--5--5--2--2--2--2--|
|-------------------------3--3--3--3--------------|

|-5--5--5-5--5--5--5--5---------------|
|-5--5--5-5--5--5--5--5---------------|
|-3--3--3-3--3--3--3--3-------------7-|
|------------------------0--2-4-5-7---|


Chorus

|--------5--5--7--7--7--7---9--9--5--5--------7-------|
|-5---5--5--5--5--5--7--7---9--9--5--5--5--5--7-------|
|-5---5--3--3--------5--5-/-7--7--3--3--5--5--5--555--|
|-3---3---------------------------------3--3----------|

|-------5--5--7--7--7--7--x5-5-5--3-3-3---5---3--3--3-|
|-5--5--5--5--5--5--7--7--x5-5-5--3-3-3---5---3--3--3-|
|-5--5--3--3--------5--5--x3-3-3--1-1-1---3---1--1--1-|
|-3--3------------------------------------------------|


Bridge

You are fast asleep, I scan your inner eyelids...
|--3--|--7--|--3--|--2--|--3--|
|*-3-*|*-5-*|*-1-*|*-2-*|*-3-*|
|*-1-*|*---*|*---*|*-0-*|*-1-*|
|-----|-----|-----|-----|-----|



|-------------------------------------------------------|
|*-----------------------------------------------------*|
|*-----4-4-2-2-2---5-5-4-7----4-4-2-2-2----7--5-5-4-4--*|
|---3------------0----------3------------0--------------|


Now you see that...
|-6--6--6--6--5--5--5--5--------------------------|
|-6--6--6--6--5--5--5--5--2--2--2--2--6--6--6--6--|
|-4--4--4--4--3--3--3--3--2--2--2--2--6--6--6--6--|
|-------------------------0--0--0--0--4--4--4--4--|

|-------------------------------------------|
|-------------------------------------------|
|-----------------------------------------7-|
|-005-005-005-005-5--5--5--5---0--2-4-5-7---|


Chorus

|--------5--5--7--7--7--7---9--9--5--5--------7-------|
|-5---5--5--5--5--5--7--7---9--9--5--5--5--5--7-------|
|-5---5--3--3--------5--5-/-7--7--3--3--5--5--5--555--|
|-3---3---------------------------------3--3----------|

|-------5--5--7--7--7--7--x5-5-5--3-3-3---5-----------|
|-5--5--5--5--5--5--7--7--x5-5-5--3-3-3---5---8--7--8-|
|-5--5--3--3--------5--5--x3-3-3--1-1-1---3---8--7--8-|
|-3--3----------------------------------------6--5--6-|

|-----------|
|-8--7--5~--|
|-8--7--5~--|
|-6--5--3~--|





Comments


Popular Kashmir tabs & chords
Mom In Love, Daddy In Space 1 Chords
Run To The Avalanche Chords
Slay The Emperor Chords
Eter Intro Tabs
It's Ok Now Tabs
Rocket Brothers 1 Tabs
Small Poem Of Old Friend 1 Tabs
Surfing On The Warm Industry Tabs
The Story Of Jamie Fame Flame 1 Tabs
Time Has Deserted Us Tabs


Song lyrics



↑ Back to top | Tablatures and chords are parodies/interpretations of the original songs. You may use it for private study, scholarship, research or language learning purposes only
© 2014 AZChords.com Contact us | Privacy policy | DMCA | Add/correct tabs | Request tabs | Top 50 tabs