» » »

Kashmir, Small Poem From Old Friend Tabs (ver.1)

Artists:  A B C D E F G H I J K L M N O P Q R S T U V W X Y Z # 

Small Poem From Old Friend Tabs (ver.1)

Kashmir Tabs
 Rating:
4/5 (4 votes)
Small Poem From Old Friend lessons Tabs too difficult? Try these video lessons and learn fast
                SMALL POEM OF OLD FRIEND (guitar-tabulatur)

VERS (del 1)

   C6sus2                A7                    Gsus4
e------------------ -g- ----------------- -g- ----------------- -g-
h------------------ -e- ----------------- -e- ----------------- -e-
g--2-2-2-2-2-2-2-2- -n- -0-0-0-0-0-0-0-0- -n- -0-0-0-0-0-0-0-0- -n-
d--0-0-0-0-0-0-0-0- -t- -2-2-2-2-2-2-2-2- -t- -0-0-0-0-0-0-0-0- -t-
a--3-3-3-3-3-3-3-3- -a- -0-0-0-0-0-0-0-0- -a- -3-3-3-3-3-3-3-3- -a-
e------------------ -g- ----------------- -g- -3-3-3-3-3-3-3-3- -g-
  man have I been...

VERS (del 2)

   F6                    E7                    F
e------------------ -g- ----------------- -g- -------------------------|
h------------------ -e- ----------------- -e- -------------------------|
g--2-2-2-2-2-2-2-2- -n- -1-1-1-1-1-1-1-1- -n- -2-0---------------------|
d--0-0-0-0-0-0-0-0- -t- -0-0-0-0-0-0-0-0- -t- -0-0-3-2-0---3-2-0-------|
a--3-3-3-3-3-3-3-3- -a- -2-2-2-2(3)2-2-2- -a- -3-3-3-3-3-3-3-3-3-3-0-3-|
e--1-1-1-1-1-1-1-1- -g- -0-0-0-0-0-0-0-0- -g- -1-1-1-1-1-1-1-1-1-1-1-1-|
                            How could I have...

BRIDGE

   Gsus4
e------------------ -g-|
h------------------ -e-|
g--0-0-0-0-0-0-0-0- -n-|
d--0-0-0-0-0-0-0-0- -t-|
a--3-3-3-3-3-3-3-3- -a-|
e--3-3-3-3-3-3-3-3- -g-|
  ...nothing in me...

BRIDGE 2

   A     /h    /c     D        C D        C D
e------------------------------------------------------ -g-|
h------------------------------------------------------ -e-|
g--------------------(0)------------------------------- -n-|
d--2-2-2-2-2-2-2-2-2--7--7--7--5-7--7--7--5-7--7--7--7- -t-|
a--0-0-0-2-2-2-3-3-3--5--5--5--3-5--5--5--3-5--5--5--5- -a-|
e------------------------------------------------------ -g-|
  Down and down...

CHORUS

   Csus2  A  Csus2  A  Gsus4  Fsus2  Em   Fsus2
e---------------------------------------------- -g-|
h---------------------------------------------- -e-|
g--0------2--0------2--0------0------0----0---- -n-|
d--0------2--0------2--0------3------2----3---- -t-|
a--3------0--3------0--3------3------2----3---- -a-|
e----------------------3------1------0----1---- -g-|
  Sail on...          Sad one...

B-STK


 (Piano (just tunes, not chords): E G A B C A B A G)+ VERS (del 2)
  precious, precious...
            
Submit corrections

comments powered by Disqus
↑ Back to top | Kashmir Tabs for Small Poem From Old Friend. Lyrics for acoustic guitar and electric guitar. Tablatures and chords are parodies/interpretations of the original songs. You may use it for private study, scholarship, research or language learning purposes only