>
 >
Ophelia Intro

Ophelia Intro Guitar Tabs

Kashmir - Ophelia Intro chords, tabs, tablatures, lyrics

Guitar lessons | Add/correct | Request | Top 50 tabs Artists:  A B C D E F G H I J K L M N O P Q R S T U V W X Y Z 0-9

Ophelia Intro Guitar Tabs – Kashmir

CD, Sheet music, Poster

Do you like Ophelia Intro? Share with your friends now
Tabs
Ophelia                                     
                                                                         Kashmir
Af Søren Vang Jørgensen



     Q    Q    Q    Q       Q    Q    Q    Q       Q    Q    Q    Q     
E||--3---------3---------|--3---------3---------|--3---------3---------|
B||--5---------5---------|--5---------5---------|--5---------5---------|
G||-------4---------4----|-------4---------4----|-------5---------5----|
D||----------------------|----------------------|----------------------|
A||----------------------|----------------------|----------------------|
E||----------------------|----------------------|----------------------|


  Q    Q    Q    Q       Q    Q    Q    Q       Q    Q    Q    Q     
--3---------3---------|--2---------2---------|--2---------2---------|
--5---------5---------|--3---------3---------|--3---------3---------|
-------5---------5----|-------4---------4----|-------4---------4----|
----------------------|----------------------|----------------------|
----------------------|----------------------|----------------------|
----------------------|----------------------|----------------------|


  Q    Q    Q    Q       Q    Q    Q    Q       Q    Q    Q    Q     
--2---------2---------|--2---------2---------|--0---------0---------|
--3---------3---------|--3---------3---------|--1---------1---------|
-------0---------0----|-------0---------0----|-------0---------0----|
----------------------|----------------------|----------------------|
----------------------|----------------------|----------------------|
----------------------|----------------------|----------------------|


  Q    Q    Q    Q       Q    Q    Q    Q       Q    Q    Q    Q     
--0---------0---------|--0---------0---------|--0---------0---------|
--1---------1---------|--1---------1---------|--1---------1---------|
-------0---------0----|-------0---------0----|-------0---------0----|
----------------------|----------------------|----------------------|
----------------------|----------------------|----------------------|
----------------------|----------------------|----------------------|


  Q    Q    Q    Q       Q    Q    Q    Q       Q    Q    Q    Q     
--2---------2---------|--2---------2---------|--2---------2---------|
--3---------3---------|--3---------3---------|--3---------3---------|
-------0---------0----|-------0---------0----|-------0---------0----|
----------------------|----------------------|----------------------|
----------------------|----------------------|----------------------|
----------------------|----------------------|----------------------|


                                                     Yes  the  black  
  Q    Q    Q    Q       Q    Q    Q    Q       Q    Q    Q    Q      
--2---------2---------|--3---------3---------|--3---------3----------|
--3---------3---------|--5---------5---------|--5---------5----------|
-------0---------0----|-------4---------4----|-------4---------4-----|
----------------------|----------------------|-----------------------|
----------------------|----------------------|-----------------------|
----------------------|----------------------|-----------------------|


                 ma-          gic  worked                              
  Q    Q    Q    Q       Q    Q    Q      Q       Q    Q    Q    Q     
--3---------3---------|--3---------3-----------|--2---------2---------|
--5---------5---------|--5---------5-----------|--3---------3---------|
-------5---------5----|-------5-----------5----|-------4---------4----|
----------------------|------------------------|----------------------|
----------------------|------------------------|----------------------|
----------------------|------------------------|----------------------|


       and  it   might         be        well    de-       served       
  Q    Q    Q    Q        Q    Q    Q    Q       Q    Q    Q      Q     
--2---------2----------|--2---------2---------|--2---------2-----------|
--3---------3----------|--3---------3---------|--3---------3-----------|
-------4---------4-----|-------0---------0----|-------0-----------0----|
-----------------------|----------------------|------------------------|
-----------------------|----------------------|------------------------|
-----------------------|----------------------|------------------------|


                              with a    pin     through      my         
  Q    Q    Q    Q       Q    Q    Q    Q       Q       Q    Q    Q     
--0---------0---------|--0---------0---------|--0------------0---------|
--1---------1---------|--1---------1---------|--1------------1---------|
-------0---------0----|-------0---------0----|----------0---------0----|
----------------------|----------------------|-------------------------|
----------------------|----------------------|-------------------------|
----------------------|----------------------|-------------------------|


  third      eye                                                      
  Q     Q    Q    Q       Q    Q    Q    Q       Q    Q    Q    Q     
--0----------0---------|--2---------2---------|--2---------2---------|
--1----------1---------|--3---------3---------|--3---------3---------|
--------0---------0----|-------0---------0----|-------0---------0----|
-----------------------|----------------------|----------------------|
-----------------------|----------------------|----------------------|
-----------------------|----------------------|----------------------|


  Q    Q    Q    Q       Q    Q    Q    Q       Q    Q    Q    Q     
--2---------2---------|--2---------2---------|--3---------3---------|
--3---------3---------|--3---------3---------|--5---------5---------|
-------0---------0----|-------0---------0----|-------4---------4----|
----------------------|----------------------|----------------------|
----------------------|----------------------|----------------------|
----------------------|----------------------|----------------------|


       but  the  long                   fro-         zen  stare       
  Q    Q    Q    Q       Q    Q    Q    Q       Q    Q    Q     Q     
--3---------3---------|--3---------3---------|--3---------3----------|
--5---------5---------|--5---------5---------|--5---------5----------|
-------4---------4----|-------5---------5----|-------5----------5----|
----------------------|----------------------|-----------------------|
----------------------|----------------------|-----------------------|
----------------------|----------------------|-----------------------|


                              shoting      holse         in        sta-  
  Q    Q    Q    Q       Q    Q       Q    Q        Q    Q    Q    Q     
--2---------2---------|--2------------2----------|--2---------2---------|
--3---------3---------|--3------------3----------|--3---------3---------|
-------4---------4----|-------4------------4-----|-------0---------0----|
----------------------|--------------------------|----------------------|
----------------------|--------------------------|----------------------|
----------------------|--------------------------|----------------------|


  gnant      air                                                sends  
  Q     Q    Q    Q       Q    Q    Q    Q       Q    Q    Q    Q      
--2----------2---------|--0---------0---------|--0---------0----------|
--3----------3---------|--1---------1---------|--1---------1----------|
--------0---------0----|-------0---------0----|-------0---------0-----|
-----------------------|----------------------|-----------------------|
-----------------------|----------------------|-----------------------|
-----------------------|----------------------|-----------------------|


       me        off     to        die                               
  Q    Q    Q    Q       Q    Q    Q    Q       Q    Q    Q    Q     
--0---------0---------|--0---------0---------|--2---------2---------|
--1---------1---------|--1---------1---------|--3---------3---------|
-------0---------0----|-------0---------0----|-------0---------0----|
----------------------|----------------------|----------------------|
----------------------|----------------------|----------------------|
----------------------|----------------------|----------------------|

and so on.. 
mere følger





Comments


Popular Kashmir tabs & chords
Melpomene Chords
Piece Of The Sun 1 Chords
Undisturbed Chords
Art Of Me Tabs
Cellophane 1 Tabs
Kalifornia 1 Tabs
Mom In Love, Daddy In Space 1 Tabs
Travelouge Tabs
Curse Of Being A Girl Ukulele
Seraphina Ukulele


Song lyrics



↑ Back to top | Tablatures and chords are parodies/interpretations of the original songs. You may use it for private study, scholarship, research or language learning purposes only
© 2014 AZChords.com Contact us | Privacy policy | DMCA | Add/correct tabs | Request tabs | Top 50 tabs