>
 >
Ophelia 2

Ophelia 2 Bass Tabs

Kashmir - Ophelia 2 chords, tabs, tablatures, lyrics

Guitar lessons | Add/correct | Request | Top 50 tabs Artists:  A B C D E F G H I J K L M N O P Q R S T U V W X Y Z 0-9

Ophelia 2 Bass Tabs – Kashmir

CD, Sheet music, Poster

Do you like Ophelia 2? Share with your friends now
Bass TabsBass Tabs v2
-------------------------------------------------------------------------------
			     Ophelia - Kashmir
-------------------------------------------------------------------------------


Tuning:standard

Intro:

G|-11-9-9-9-/-/-5-5-5-4-4-4----------------------------------------------------|
D|--------------------------5-5-5----------------------------------------------|
A|--------------------------------3-3-3-3-2-2-2-2------------------------------|
E|------------------------------------------------3-3-3-3-2-2-2----------------|

Chorus:

G|-----------------------------------------------------------------------------|
D|--2-2-2-2---------2-2-2-2-0-0-0-0--------------------------------------------|
A|----------3-3-3-3-------------------------3-3-3--------2-2-2-3-3-3-5-5-5-----|
E|----------------------------------3-3-3-3-------5-5-5------------------------|

Bridge:

G|-----------------------------------------------------------------------------|
D|--------------------------------------------------------0-2------------------|
A|--7-7-7---7-5-5-5---5-3-3-3-5-3-3-3-5-3-0-0-0---0-2-2-2----------------------|
E|--------7---------5---------------------------3------------------------------|

G|------------------|----------------------------------------------------------|
D|------------------|----------------------------------------------------------|
A|--------3-3-3-5-3-|----------------------------------------------------------|
E|--0-0-0-----------|5-5-5-7---------------------------------------------------|

Verse:

G|-----------------------------------------------------------------------------|
D|------------------------------------------------------5-5-5-5----------------|
A|--7-7-7-3-3-3-2-2-2-0-0-------3-3-3-5-3-5-3-5-3------------------------------|
E|------------------------3-3-3-------------------3-3-3------------------------|

Chorus variation:

G|-----------------------------------------------------------------------------|
D|--2-2-2-------2-2-2-4-5-5-5-5------------------------------------------------|
A|--------3-3-3-----------------7-\-\-\-\-3-3-3-2-2-2--------------------------|
E|----------------------------------------------------5-5-5-3-3-2-2-/-/-14-----|

Second bridge ending:(*)                   Third bridge ending:(**)

G|----------------------------------|------------------------------------------|
D|----------------------------------|------------------------------------------|
A|--------5-7-5---------------------|------------------------------------------|
E|--5-7-8---------------------------|--5-5-5-7-5-7-5-7-2-2-2-2-----------------|

Song progression:

Intro
Chorus
Bridge
Verse x2
Chorus
Chorus variation
bridge with (*)
bridge with (**)





Comments


Popular Kashmir tabs & chords
Gloom Bass Tabs
Kalifornia Bass Tabs
Milk For The Black Hearted Chords
Child Of A Distant Cult Intro Tabs
In The Sand Tabs
Kalifornia Tabs
Miss You (Slight Return) Tabs
Mom In Love, Daddy In Space Tabs
Ramparts Tabs
The Story Of Jamie Fame Flame Tabs


Song lyrics



↑ Back to top | Tablatures and chords are parodies/interpretations of the original songs. You may use it for private study, scholarship, research or language learning purposes only
© 2014 AZChords.com Contact us | Privacy policy | DMCA | Add/correct tabs | Request tabs | Top 50 tabs