>
 >
Kalifornia

Kalifornia Bass Tabs

Kashmir - Kalifornia chords, tabs, tablatures, lyrics

Guitar lessons | Add/correct | Request | Top 50 tabs Artists:  A B C D E F G H I J K L M N O P Q R S T U V W X Y Z 0-9

Kalifornia Bass Tabs – Kashmir

CD, Sheet music, Poster

Do you like Kalifornia? Share with your friends now
Bass TabsChordsTabsTabs v2Tabs v3Ukulele
-------------------------------------------------------------------------------
-------------------------------------------------------------------------------


Tuning:standard

The number of times the notes are played isn't the same as shown. Just follow the song 
get the timing right.

Verse:

G|-----------------------------------------------------------------------------|
D|-----------------------------------------------------------------------------|
A|-----------------------------------------------------------------------------|
E|--7-5-3-0-0-0-0-0-0---3-0-5-5-5-3-5-7-0-0-0-0-0-0---7-5-5-5-5-5-5------------|

Chorus:

G|-----------------------------------------------------------------------------|
D|-----------------------------------------------------------------------------|
A|-----------------------------------------------------------------------------|
E|--7-5-3-0-0-0---7-5-3-2-2-2---7-5-3-0-0-0---7-5-5-5-5------------------------|

Ending:

G|-----------------------------------------------------------------------------|
D|-----------------------------------------------------------------------------|
A|--------------------------------------------------5--------------------------|
E|--5-5-5-5-5-5-5-5-5-5-5---2-2-2-2-2-3-3-3-3-3-3-3---5-5-5-5-5-5-5------------|


G|-----------------------------------------------------------------------------|
D|-----------------------------------------------------------------------------|
A|--------------------------2-2-2-2-2-2-0-2-------------------------5----------|
E|--2-2-2-2-2-2-3-3-3-3-3-3-----------------2-2-2-2-2-2-3-3-3-3-5-3---5-5-5----|

G|-----------------------------------------------------------------------------|
D|-----------------------------------------------------------------------------|
A|------------------------------5-5-5-5-5-7-5-5-7-5----------------------------|
E|--5-5-5-2-2-2-2-2-3-3-3-3-5-3---------------------2-2-2-2-2-3-3-3-3-3--------|

G|-----------------------------------------------------------------------------|
D|-------------------------------------------------7-9-9-9-9-\-\-\-\-----------|
A|------5-------------7-9-9-9-9-9-9-9-9-9-10-10-10-------------------2-2-2-----|
E|--3-5---5-5-5-5-5-5----------------------------------------------------------|

G|-----------------------------------------------------------------------------|
D|-----------------------------------------------------------------------------|
A|------------------------5-5-5-5-7-5------------------------------------------|
E|--2-2-2-2-2-3-3-3-3-5-3-------------5-5-5-5-5-5-5-5-2-2-2-2------------------|

Song progression:

Verse x3
Chorus
Verse x2
Chorus
Ending





Comments


Popular Kashmir tabs & chords
Dring Bass Tabs
The Story Of Jamie Fame Flame Bass Tabs
Danger Bear Chords
Electrified Love Chords
Lampshade Chords
Art Of Me Tabs
Jamie Fame Flame Tabs
Kalifornia Tabs
Miss You Tabs
Vicious Passion Tabs


Song lyrics



↑ Back to top | Tablatures and chords are parodies/interpretations of the original songs. You may use it for private study, scholarship, research or language learning purposes only
© 2014 AZChords.com Contact us | Privacy policy | DMCA | Add/correct tabs | Request tabs | Top 50 tabs