>
 >
Jamie Fame Flame

Jamie Fame Flame Guitar Tabs

Kashmir - Jamie Fame Flame chords, tabs, tablatures, lyrics

Guitar lessons | Add/correct | Request | Top 50 tabs Artists:  A B C D E F G H I J K L M N O P Q R S T U V W X Y Z 0-9

Jamie Fame Flame Guitar Tabs – Kashmir

CD, Sheet music, Poster

Do you like Jamie Fame Flame? Share with your friends now
TabsTabs v2
INTRO/OMKVÆD

e------------------- -g- ---------------------------------------------
h------------------- -e- ---------------------------------------------
g------------------- -n- ---------------------------------------------
d-----------4--7--9- -t- ---------4--7--9-7---------------------4--7-9
a--2--5--5--2--5--7- -a- 2--5--5--2--5--7-5-9-8-7-5-7--2--5--5--2--5-7
e--0--2--3---------- -g- 0--2--3------------7-6-5-3-5--0--2--3--------
   Everybody...

VERS
                                 efter soloen: 
e------------------------ -g-    ------------------------ -g-
h------------------------ -e-    ------------------------ -e-
g------------------------ -n-    -9-9--7--6--4-4--14--13- -n-
d----------------------9- -t-    ------------------------ -t-
a--2-2--7--7--5-5------7- -a-    -7-7--5--4--2-2--12--11- -a-
e--0-0--5--5--3-3--0-0-0- -g-    ------------------------ -g-
   Well I was sitting...          So when I woke up...

JAZZSOLO

e-------------------------------------------------------------------->
h--------------------12---------------------------------------------->
g--------------12-15----12------------------------------------------->
d--------12-14----------------14-13-12-11-------------14----14----12->
a--13-14-------------------14-------------14-13-12-11----11----11---->
e-------------------------------------------------------------------->

e--> 16-16-14--14-13-12------------------------------------14-13-12-->
h--> 16-15-14--14-13-12--12----12--------------------------14-13-12-->
g--> 15-14-13--13-12-11--12-13-13------------------------9-13-12-11-->
d--> 16-15-14--14-13-12--12----12-------------------9-11---12-11-10-->
a--> ------------------------------------7-9-7-9^11------------------>
e--> ------------------------------7-9-7----------------------------->

e--> 11-10-9--8-7-6--6-6--5--5-5--4-4--4-4--4-4- -- -
h--> 11-10-9--8-7-6--6-6--5--5-5--4-4--4-4--4-4- -- -
g--> 10--9-8--7-6-5--5-5--4--4-4--3-3--3-3--3-3- -- -
d--> -9--8-7--6-5-4--4-4--3--3-3--2-2--2-2--2-2- -- -
a--> ------------------------------------------- -- -
e--> ------------------------------------------- -- -

TONZER-SOLO

e-----------------------------------------------------------------------
h-------------------------------14----14------------------------------12
g-----------6---9---12----15-------12----12----------------13---13-14---
d-------5-----5---8----11----14-------------------14-15-14----15--------
a--7-7----7-------------------------------------------------------------
e-----------------------------------------------------------------------

e-----------12----12-13--12-13-16-13-12-13-12----12---------------------
h--12-13-15----15-----------------------------15----15-13-15-13-12-13-12
g-----------------------------------------------------------------------
d-----------------------------------------------------------------------
a-----------------------------------------------------------------------
e-----------------------------------------------------------------------

e-----------------------------------------------------------------------
h-----12----------------------------------------------------------------
g--14----14-13-14-13----13----------------------------------------------
d--------------------15----15-14-15-14-12-14-12-10-12-10-9-10-9-6--6-7-6
a-----------------------------------------------------------------------
e-----------------------------------------------------------------------

e-------------------------------------------------------------7-8-^12-
h------------------------------------------10^12^10-9--9-10-9---------
g---------------------9-9-10-9-9-10-9-10-9----------------------------
d--7-6-8-8--8-8-8-9-8-------------------------------------------------
a---------------------------------------------------------------------
e---------------------------------------------------------------------

e--10-8-7-10--8-7----8--7--------------------------------------- ----- -
h-----------------10------10-8--10^12-10-8---8------------------ ----- -
g------------------------------------------9---9-7-9------------ -9-9- -
d--------------------------------------------------------------- ----- -
a--------------------------------------------------------------- -7-7- -
e----------------------------------------------------3^^^15^^^3- ----- -

SLUTNING+SOLO

e--------------------------------------------------------------------
h--------------------------------------------------------------------
g--9--9-7--7-5--5-2--4--9--11^12^11-7--11^12^11^12^11-5--2^3^2-2--4--
d--------------------------------------------------------------2--4--
a--7--7-5--5-3--3-0--2--7---9^10^9--5---9^10^-9^10^-9-3--2^3^2-0--2--
e--------------------------------------------------------------------
 ..that´s my name...

e----------------------12-------17^19-17-15-14-15-17-15-14-15-14------
h----------------------------------------------------------------15---
g--------11-12-14-14^16---14^16-------------------------------------16
d--14-14--------------------------------------------------------------
a---------------------------------------------------------------------
e---------------------------------------------------------------------

e--12-14-12----12-----------------------------------------------------
h-----------15----15-13-12-15-13-12-13----12--------------------------
g--------------------------------------14----12-14-11-12----11--------
d--------------------------------------------------------14-----------
a--------------------------------------------------------------14-14--
e---------------------------------------------------------------------

e--------------------------------------------------15-----------------
h-----------------------------------15--------------------------------
g-----11-12----11-12-14^15-14-12-14----14^15-14-12----14^15-14-12-----
d--14-------14----------------------------------------------------14--
a---------------------------------------------------------------------
e---------------------------------------------------------------------

e---------------------------------------------------------------------
h---------------------------------------------------------------------
g--12^14-12-----------------------------------------------------------
d----------------------12---------10---------9------------12----------
a-----------------9-10-------9-10-------9-10---------9-10-------9-10--
e-----------12-12---------12---------12--------10-10---------10-------

e---------------------------------------------------------------------
h---------------------------------------------------------------------
g---------------------------------------------------------------------
d--10---------9----------12--------10--------9------------------9-10--
a--------9-10-------9-10------9-10------9-10------------9-10-12-------
e-----10--------8-8---------8---------8--------10-10-12---------------

e--------------------------------------------------------------------------------------------
h------------------------------------------------15-12---------------------------------------
g-----9-11-12-9-11-12-14-11-12-14-16-12-14-16-19-------15-14-12----12------------------------
d--12-----------------------------------------------------------14----14-12------------------
a-------------7--9-10-12--9-10-12-14-10-12-14-17----------------------------14-13-12---------
e------------------------------------------------------------------------------------15-12-16





Comments


Popular Kashmir tabs & chords
Miss You Bass Tabs
Rocket Brothers Bass Tabs
Electrified Love Chords
Rocket Brothers 1 Chords
The Aftermath 1 Chords
Eter Intro Tabs
Gorgeous Tabs
The Aftermath Tabs
Travelouge Tabs
Milk For The Black Hearted Ukulele


Song lyrics



↑ Back to top | Tablatures and chords are parodies/interpretations of the original songs. You may use it for private study, scholarship, research or language learning purposes only
© 2014 AZChords.com Contact us | Privacy policy | DMCA | Add/correct tabs | Request tabs | Top 50 tabs