» » »

Dring Bass tabs (ver.1)

Artists:  A B C D E F G H I J K L M N O P Q R S T U V W X Y Z # 

Dring Bass tabs (ver.1)

Kashmir
Rating:
5/5 (1 vote)

Hard to play? Try these video lessons and learn fast.
                Drop-D tuning

No bass in intro until about 0:24 into the song
there it makes 2 overtones:

G-------(4)--|
D-(4)--------| (Don't press down the string, just place your finger)
A------------| (directly above the 4th fret                        )
D------------|


1. Verse

"Once I was"...
G---------------------------------------------53----------|
D------------------------------------------------53--5----|
A-5-5---2-2-2-2--1-1--0-0-0--0--5-5--2-2--2--3------6-----|
D----------------------------------------------------5----|

G-------------------------------------------------|
D---------------------------------5-----3---2-----|
A-5-5---2-2-2-2--1-1-0-0-0-0-0--------------------|
D-------------------------------5----3----2----7--|

G---------9-76-6--7-----------9-76-6--7~---------9-76-6--7-------|
D--------------------8----------------------------------------8--|
A----------------------------------------------------------------|
D-888-8-----------------888-8---------------888-8----------------|

G-------------------------|
D-----------------5----7--|
A---------10--3----4------|
D-888-8-------------------|


2. verse

G----------------------------------------------------12~--|
D---------------------------------------------------------|
A-5-5---2-2-2-2--1-1--0-0-0--0--5-5--2-2--2--1-x1/10------|
D---------------------------------------------------------|

G-----------------4--------------------------------------------|
D------------------------------------------5--------3----------|
A-5--5-5--2--2-2-2--x1--1-1--0--0-0-00-------------------------|
D---------------------------------------5-----3-33-3--x2--2--7-|

G------------------8-10--------------------------------15~--|
D------------x1--10-------10-8-----13------10-8-----17------|
A-----3------------------------11-----13--------11----------|
D-8------/3-3-----------------------------------------------|


Chorus

G----------------------|
D----------------------| x2
A----------------------|
D-333-555--777-888-666-|

G----------------------------------------------|
D-------------------------10--11--------10--11-|
A----------------------------------------------|
D-333-555--777-888--10-10---------10-10--------|

Just play D for a while!


Hum-part (ha  ha ha  haah ha  haeh hae-hae)

G-----------------------------------------------------------------5-3-----|
D------------------8--------------------------------------------------7-5-|
A---------8----------------5-------5------5--------5----------8-----------|
D-8--8-8----8--8-8----0--0---0--00---0--0---0--0-0----8--8-8----8---------|

Bridge (.."You die in every dream I have - but I still wake up"..)

G----------------|
D----------------| x6 (descending volume + last 3 times one octave higher)
A-(5)------------|
D--0---4---5---3-|

G-----------------------------------------|
D--------------------------------5-----7--|
A------------------------------3----4-----|
D-/8-8--8---8-8--8---8-8--8---------------|

Chorus

Play D with the rhythm (mostly low D)

G----------------------------------------------------------5-3--------------|
D-------------------8-------------------------------------------7---5-------|
A---------8------------------------------------------8----------------------|
D-8--8-8----8--8-8-----000-000--000-000-000--8--8-8----8-----------------0~-|
            
Hard to play? Try these video lessons and learn fast. | Correct




comments powered by Disqus
↑ Back to top | Tablatures and chords are parodies/interpretations of the original songs. You may use it for private study, scholarship, research or language learning purposes only