>
 >
Bag Of Flash And Thyme 1

Bag Of Flash And Thyme 1 Guitar Tabs

Kashmir - Bag Of Flash And Thyme 1 chords, tabs, tablatures, lyrics

Guitar lessons | Add/correct | Request | Top 50 tabs Artists:  A B C D E F G H I J K L M N O P Q R S T U V W X Y Z 0-9

Bag Of Flash And Thyme 1 Guitar Tabs – Kashmir

CD, Sheet music, Poster

Do you like Bag Of Flash And Thyme 1? Share with your friends now
ChordsTabsTabs v2Ukulele
Bag of Flash & Thyme (tablatur)



Intro:

 Emadd2  B7 B7#5
e--2-----2---3-- -g-
h--0-----0---0-- -e-
g--0-----2---2-- -n-
d--2-----1---1-- -t-
a--2-----2---2-- -a-
e--0------------ -g-
  x4    x3  x1


Vers:						  [1	  [2

 Emadd2  B7 B7#5     Emadd2  B7 C C/B Am F#13 B7   B7#5    B7
e--2-----2---3-- -g- --2-----2--0--0--0-------2-- --3---- --2---
h--0-----0---0-- -e- --0-----0--1--1--1---0---0-- --0---- --0---
g--0-----2---2-- -n- --0-----2--0--0--2---3---2-- --2---- --2---
d--2-----1---1-- -t- --2-----1--2--2--2---2---1-- --1---- --1---
a--2-----2---2-- -a- --2-----2--3--2--0---1---2-- --2---- --2---
e--0------------ -g- --0------------------2------ ------- ------
  x4    x3  x1        x4    x2 x1 x1 x2  x2  x3    x1      x1

I know how it feels..        ...going on below


Omkvæd:

  B7b9 Em Em/F# Em/G Em/B Asus2 B7 Em Emmaj7 Em7 Em6
e------0---0-----0----0-----0---2--0----0-----0---0---------------
h--1---0---0-----0----0-----0---0--0----0-----0---0---------------
g--2---0---0-----0----0-----2---2--0----0-----0---0---------------
d--1---2---2-----2----2-----2---1--2----1-----0---2---------------
a--2---2---2-----2----2-----0---2--2----2-----2---4---------------
e------0---2-----3-----------------0----0-----0---0---------------
  x4  x1  x1    x1   x1    x2  x2 x1   x1    x1  x1

I dig through...


 Cmaj7 B7 Em Emadd2 Em C  Am F#13 B7
e--0---2--0----0----0--0--0-------2-------------------------------
h--0---0--0----0----0--1--1---0---0-------------------------------
g--0---2--0----0----0--0--2---3---2-------------------------------
d--2---1--2----4----2--2--2---2---1-------------------------------
a--3---2--2----2----2--3--0---1---2-------------------------------
e---------0----0----0---------2---0-------------------------------
  x2  x2 x2   x1   x1 x3 x1  x2  x2

I drink too long...


Solo:

   E E/D# E  B7
e--0--0---0--2-- -g-
h--0--4---0--0-- -e-
g--1--1---1--2-- -n-
d--2--2---2--1-- -t-
a--2--2---2--2-- -a-
e--0--0---0--0-- -g-
  x3  x1 x1 x4


Mellemspil:

   E  B7 B15        E  B7 C C/B Am F#13 B7
e--0--2---4-- -g- --0--2--0--0--0-------2-------------------------
h--0--0---0-- -e- --0--0--1--1--1---0---0-------------------------
g--1--2---2-- -n- --1--2--0--0--2---3---2-------------------------
d--2--1---1-- -t- --2--1--2--2--2---2---1-------------------------
a--2--2---2-- -a- --2--2--3--2--0---1---2-------------------------
e--0--0---0-- -g- --0---------------2-----------------------------
  x4 x3  x1        x4 x2 x1 x1 x2  x2  x3

I talk to the fish on the floor...


Omkvæd:

  B7b9 Em Em/F# Em/G Em/B Asus2 B7 Em Emmaj7 Em7 Em6
e------0---0-----0----0-----0---2--0----0-----0---0---------------
h--1---0---0-----0----0-----0---0--0----0-----0---0---------------
g--2---0---0-----0----0-----2---2--0----0-----0---0---------------
d--1---2---2-----2----2-----2---1--2----1-----0---2---------------
a--2---2---2-----2----2-----0---2--2----2-----2---4---------------
e------0---2-----3-----------------0----0-----0---0---------------
  x4  x1  x1    x1   x1    x2  x2 x1   x1    x1  x1

See I dig through...



 Cmaj7 B7 Em Emadd2 Em C  Am F#13 B7
e--0---2--0----0----0--0--0-------2-------------------------------
h--0---0--0----0----0--1--1---0---0-------------------------------
g--0---2--0----0----0--0--2---3---2-------------------------------
d--2---1--2----4----2--2--2---2---1-------------------------------
a--3---2--2----2----2--3--0---1---2-------------------------------
e---------0----0----0---------2---0-------------------------------
  x2  x2 x2   x1   x1 x3 x1  x2  x2

I drink too long...


Bro:

 Emadd2    Emadd2  B7 B7#5     Emadd2  B7 C C/B Am F#13 B7
e--2----   --2-----2---3-- -g- --2-----2--0--0--0-------2--
h--0----   --0-----0---0-- -e- --0-----0--1--1--1---0---0--
g--0----   --0-----2---2-- -n- --0-----2--0--0--2---3---2--
d--2----   --2-----1---1-- -t- --2-----1--2--2--2---2---1--
a--2----   --2-----2---2-- -a- --2-----2--3--2--0---1---2--
e--0----   --0------------ -g- --0------------------2------
  x16       x4    x3  x1        x4    x2 x1 x1 x2  x2  x3


  B7b9 Em Em/F# Em/G Em/B Asus2 B7 Em Emmaj7 Em7 Em6
e------0---0-----0----0-----0---2--0----0-----0---0---------------
h--1---0---0-----0----0-----0---0--0----0-----0---0---------------
g--2---0---0-----0----0-----2---2--0----0-----0---0---------------
d--1---2---2-----2----2-----2---1--2----1-----0---2---------------
a--2---2---2-----2----2-----0---2--2----2-----2---4---------------
e------0---2-----3-----------------0----0-----0---0---------------
  x4  x1  x1    x1   x1    x2  x2 x1   x1    x1  x1


 Cmaj7 B7 Em Gaug
e--0---2--0-------------------------------------------------------
h--0---0--0---4---------------------------------------------------
g--0---2--0---4---------------------------------------------------
d--2---1--2---5---------------------------------------------------
a--3---2--2-------------------------------------------------------
e---------0-------------------------------------------------------
  x2  x2 x2  x1


Coda

   C              F#b11      B7       Emadd2    Em11
e----------0---------------------------------0-2------------------
h--------1---0-----------------0-----------0-----3----------------
g------0-------2-0-------0-------2-------0---------4--------------
d----2-----------------2-----1---------2--------------------------
a--3-----------------1-----2---------2----------------------------
e------------------2---------------0------------------------------


Ovenstående tablatur er kun vejledende...

Der tages forbehold for fejl og unøjagtigheder.


Tekst:

I know how it feels when you're here
puts the heat in the air when you're near
but I will never know, what's going on below
skin, bones and hair.

I'd fall from a tree for a smile
hit myself and still hurt for a smile
but I will never find, the bag of flash & thyme
shine me the stairs.

I dig through the soil and the shields
and the softness of gold turns to steel
I drink too long, and I wet my tongue
cause I have done you wrong, dead wrong.

I talk to the fish on the floor
see my new-found friend never gets bored
my favourite place of all
is the closet in the hall, here noone calls.

See I dig through the soil and the shields
and the softness of gold turns to steel
I drink too long, and I wet my tongue
cause I have done you wrong, dead wrong.





Comments


Popular Kashmir tabs & chords
Melpomene Bass Tabs
Petite Machine Chords
Cynic 3 Tabs
Miss You Tabs
Rose 1 Tabs
Small Poem Of Old Friend 1 Tabs
The Story Of Jamie Fame Flame Tabs
The Story Of Jamie Fame Flame 3 Tabs
Run To The Avalanche Ukulele
Undisturbed Ukulele


Song lyrics



↑ Back to top | Tablatures and chords are parodies/interpretations of the original songs. You may use it for private study, scholarship, research or language learning purposes only
© 2014 AZChords.com Contact us | Privacy policy | DMCA | Add/correct tabs | Request tabs | Top 50 tabs