>
 >
Vlad The Impaler 4

Vlad The Impaler 4 Bass Tabs

Kasabian - Vlad The Impaler 4 chords, tabs, tablatures, lyrics

Guitar lessons | Add/correct | Request | Top 50 tabs Artists:  A B C D E F G H I J K L M N O P Q R S T U V W X Y Z 0-9

Vlad The Impaler 4 Bass Tabs – Kasabian

CD, Sheet music, Poster

Do you like Vlad The Impaler 4? Share with your friends now
Bass TabsBass Tabs v2Bass Tabs v3Bass Tabs v4TabsTabs v2
Band: Kasabian
Bassist: Chris Edwards
Tuning: Standard

[0:09 - 1:03] 
[1:08 - 1:41] 
[1:58 - 2:15]

G|----------------------------------------------------------|
D|------11-------------11--------------11-------------------|
A|13-13----13\(8)/13-13---13\(8)/13-13----13-12-1211-11\(8)-|
E|----------------------------------------------------------|


[2:14 - 2:16]

G|----------------------------------------------------------|
D|------11-------------11-----------------------------------|
A|13-13----13\(8)/13-13---13\-------------------------------|
E|----------------------------------------------------------|
                   
[2:19 - 2:40]
[2:52 - 3:05]

G|----------------------------------------------------------|
D|------11-------------11--------------11-------------------|
A|13-13----13\(8)/13-13---13\(8)/13-13----13-12-1211-11\(8)-|
E|----------------------------------------------------------|

[3:05]

G|----------------------------------------------------------|
D|------11-------------11--------------11-------------------|
A|13-13----13\(8)/13-13---13\(8)/13-13----13----------------|
E|----------------------------------------------------------|

[3:08 - 4:16] 

G|----------------------------------------------------------|
D|------11-------------11--------------11-------------------|
A|13-13----13\(8)/13-13---13\(8)/13-13----13-12-1211-11\(8)-|
E|----------------------------------------------------------|

() ghost note
/  slide up
\  slide down
h  hammer-on
p  pull-off
~  let ring





Comments


Popular Kasabian tabs & chords
Club Foot 1 Bass Tabs
Foot Club 2 Bass Tabs
Ladies And Gentlemen 2 Bass Tabs
Empire Chords
Running Battle Chords
I Hear Voices 1 Tabs
Rewired Tabs
Fire Ukulele
Lets Roll Just Like We Used To Ukulele
Man Of Simple Pleasures Ukulele


Song lyrics



↑ Back to top | Tablatures and chords are parodies/interpretations of the original songs. You may use it for private study, scholarship, research or language learning purposes only
© 2014 AZChords.com Contact us | Privacy policy | DMCA | Add/correct tabs | Request tabs | Top 50 tabs