>
 >
Velociraptor

Velociraptor Bass Tabs

Kasabian - Velociraptor chords, tabs, tablatures, lyrics

Guitar lessons | Add/correct | Request | Top 50 tabs Artists:  A B C D E F G H I J K L M N O P Q R S T U V W X Y Z 0-9

Velociraptor Bass Tabs – Kasabian

CD, Sheet music, Poster

Do you like Velociraptor? Share with your friends now
Bass TabsTabsTabs v2
 This is my first tab, so be patient. I did a research, looking in bass covers and 
even with my teachers, and i guess this is almost correct, except in one part or 
another. And i feel glad to be the first person to put this music in a bass tab, for what I know. 
"Velociraptor Tab".


Intro/Verse (X8)
G -------------------------------------------------------------------------|
D -------------------------------------------------------------------------|
A -2-2-2-3-2-0----2-2-2-3-2-0----2-2-2-3-2-0----------3--3-3-----6-6-------|
E -------------------------------------------------------------------6-6---|

Chorus (X2)
G ---------------------------------------------------------------|
D ---------------------------------------------------------------|
A -2--2-2-2-2-2--------------------------------------------------|
E ------------------3--3-3-3-3-3---0--0-0-0-0-0---0--0-0-0-0-0---|

Brigde
G ----------------------------------------------------------------|
D ----------------------------------------------------------------|
A -3--3-3-3-3-3---3--3-3-3-3-3---0--0-0-0-0\1515-1515-1515-1515---|
E ----------------------------------------------------------------|

G ---------------------------------------------------------------|
D ---------------------------------------------------------------|
A --3--3-3-3-3-3---3--3-3-3-3-3------7--7--7--7--7--7--7-7-7-7---|
E ---------------------------------------------------------------|

Verse (X4)
G -------------------------------------------------------------------------|
D -------------------------------------------------------------------------|
A -2-2-2-3-2-0----2-2-2-3-2-0----2-2-2-3-2-0----------3--3-3-----6-6-------|
E -------------------------------------------------------------------6-6---|

Chorus (X2)
G -----------------------------------------------------------------------|
D -----------------------------------------------------------------------|
A -2--2-2-2-2-2----------------------------------------------------------|
E ------------------3--3-3-3-3-3---0--0-0-0-0-0---0--0-0-0-0-0---(151515)|
     () PLAY ONLY IN THE FIRST TIME

Brigde
G ----------------------------------------------------------------|
D ----------------------------------------------------------------|
A -3--3-3-3-3-3---3--3-3-3-3-3---0--0-0-0-0\1515-1515-1515-1515---|
E ----------------------------------------------------------------|

G ---------------------------------------------------------------|
D ---------------------------------------------------------------|
A --3--3-3-3-3-3---3--3-3-3-3-3------7--7--7--7--7--7--7-7-7-7---|
E ---------------------------------------------------------------|

Verse (X4)
G -------------------------------------------------------------------------|
D -------------------------------------------------------------------------|
A -2-2-2-3-2-0----2-2-2-3-2-0----2-2-2-3-2-0----------3--3-3-----6-6-------|
E -------------------------------------------------------------------6-6---|

Final Legatto
G ----------|
D ----------|
A ---2\15---|
E ----------|





Comments


Popular Kasabian tabs & chords
Empire Bass Tabs
Days Are Forgotten Chords
Goodbye Kiss 1 Chords
Rewired 4 Chords
Underdog Chords
Cutt Off 1 Tabs
Days Are Forgotten 1 Tabs
Fast Fuse 4 Tabs
Ketang Tabs
Last Trip (In Flight) Tabs


Song lyrics



↑ Back to top | Tablatures and chords are parodies/interpretations of the original songs. You may use it for private study, scholarship, research or language learning purposes only
© 2014 AZChords.com Contact us | Privacy policy | DMCA | Add/correct tabs | Request tabs | Top 50 tabs