» » »

Kasabian, Velociraptor Tabs (ver.1)

Artists:  A B C D E F G H I J K L M N O P Q R S T U V W X Y Z # 

Velociraptor Tabs (ver.1)

Kasabian Tabs
 Rating:
4/5 (4 votes)
Velociraptor lessons Tabs too difficult? Try these video lessons and learn fast
1
                Kasabian - Velociraptor!
Key: B

verse / chorus (clean guitar):

E -----------------------------------|
B -----------------------------------|
G -4-4-444-444---------------7-------|
D -4-4-444-444--(x3)-4--(x4)-7--(x4)-|
A -2-2-222-320-------4-------5-------|
E -------------------2---------------|

pre-chorus / part 1 (clean guitar):

E -----------------------------------|
B -----------------------------------|
G -4---------------1-----------------|
D -4--(x8)-5--(x8)-2--(x16)----------|
A -2-------5-------2-----------------|
E ---------3-------------------------|

pre-chorus / part 2 (clean guitar):

E -------------------------------------------|
B -------------------------------------------|
G -9--------8-------9--------9---------------|
D -10--(x8)-9--(x8)-10--(x8)-9--(x8 or more)-|
A -10-------9-------10-------7---------------|
E -8--------7-------8------------------------|

solo guitar / chorus (with overdrive, tremolo picking):

E -14-14-14-14-11-11-11-12-------------------------|
B -------------------------12-12-12-12-12-12-12-12-|
G -------------------------------------------------|
D -------------------------------------------------|
A -------------------------------------------------|
E -------------------------------------------------|

E -14-14-14-14-11-11-11-9-11-11-11-11-11-11-11-11--|
B -------------------------------------------------|
G -------------------------------------------------|
D -------------------------------------------------|
A -------------------------------------------------|
E -------------------------------------------------|

solo guitar / second part of second verse (with overdrive):

E --------------------|
B -13-12--13-12-------|
G --------------------|
D ---------------(x2)-|
A --------------------|
E --------------------|

solo guitar / pre-chorus / part 1 (with overdrive, tremolo picking):

E ------------------12--(x16)-|
B -12--(x8)-8--(x8)-----------|
G ----------------------------|
D ----------------------------|
A ----------------------------|
E ----------------------------|

solo guitar / pre-chorus / part 2 (with overdrive, tremolo picking):

E -------------------------------12--(x16)-|
B -13--(x16)-12--(x16)-13--(x16)-----------|
G -----------------------------------------|
D -----------------------------------------|
A -----------------------------------------|
E -----------------------------------------|
            
Submit corrections

comments powered by Disqus
↑ Back to top | Kasabian Tabs for Velociraptor. Lyrics for acoustic guitar and electric guitar. 1 Tablatures and chords are parodies/interpretations of the original songs. You may use it for private study, scholarship, research or language learning purposes only