» » »

Kasabian, Seek And Destroy Tabs (ver.1)

Artists:  A B C D E F G H I J K L M N O P Q R S T U V W X Y Z # 

Seek And Destroy Tabs (ver.1)

Kasabian Tabs
 Rating:
4/5 (4 votes)
Seek And Destroy lessons Tabs too difficult? Try these video lessons and learn fast
1
                Kasabian – Seek And Destroy

Verse (synth arranged for guitar):

E|---------------------------------|---------------------------------|
B|---------------------------------|---------------------------------|
G|-3-------3-------3-------3-------|-1-------1-------1-------1-------|
D|---3-0-----3-0-----3-0-----3-0---|---3-0-----3-0-----3-0-----3-0---|
A|-------1-------1-------1-------1-|-------1-------1-------1-------1-|
E|---------------------------------|---------------------------------|
   Seek	             and de-       -stroy 		 all you

E|---------------------------------|---------------------------------|
B|---------------------------------|---------------------------------|
G|---------------------------------|-3-------3-------3-------3-------|
D|-4-3-----4-3-----4-3-----4-3-----|---3-0-----3-0-----3-0-----3-0---|
A|-----4-1-----4-1-----4-1-----4-1-|-------1-------1-------1-------1-|
E|---------------------------------|---------------------------------|
	Have		       cos I     	 know

E|---------------------------------|---------------------------------|
B|---------------------------------|---------------------------------|
G|-3-------3-------3-------3-------|-1-------1-------1-------1-------|
D|---3-0-----3-0-----3-0-----3-0---|---3-0-----3-0-----3-0-----3-0---|
A|-------1-------1-------1-------1-|-------1-------1-------1-------1-|
E|---------------------------------|---------------------------------|
   Bro-                   -ther my 	 fears			 and your	 

E|---------------------------------|---------------------------------|
B|---------------------------------|---------------------------------|
G|---------------------------------|-3-------3-------3-------3-------|
D|-4-3-----4-3-----4-3-----4-3-----|---3-0-----3-0-----3-0-----3-0---|
A|-----4-1-----4-1-----4-1-----4-1-|-------1-------1-------1-------1-|
E|---------------------------------|---------------------------------|
	tears		       cos you     	 know                      And   	

Chorus:

E|---------------------------------|---------------------------------|
B|-4-------4-------4-------4-------|---------------------------------|
G|---3-0-----3-0-----3-0-----3-0---|-3-0-----3-0-----3-0-----3-0-----|
D|-------1-------1-------1-------1-|-----2-------2-------2-------2---|
A|---------------------------------|-------3-------3-------3-------3-|
E|---------------------------------|---------------------------------|
   All 			I	    have 	      now

E|---------------------------------|---------------------------------|
B|---------------------------------|---------------------------------|
G|---------------------------------|-3-------3-------3-------3-------|
D|-1-0-----1-0-----1-0-----1-0-----|---3-0-----3-0-----3-0-----3-0---|
A|-----1-------1-------1-------1---|-------1-------1-------1-------1-|
E|-------3-------3-------3-------3-|---------------------------------
	         is being here  withyou

Verse:

E|---------------------------------|---------------------------------|
B|---------------------------------|---------------------------------|
G|-3-------3-------3-------3-------|-1-------1-------1-------1-------|
D|---3-0-----3-0-----3-0-----3-0---|---3-0-----3-0-----3-0-----3-0---|
A|-------1-------1-------1-------1-|-------1-------1-------1-------1-|
E|---------------------------------|---------------------------------|
   Seek	             and de-       -stroy 		 all you

E|---------------------------------|---------------------------------|
B|---------------------------------|---------------------------------|
G|---------------------------------|-3-------3-------3-------3-------|
D|-4-3-----4-3-----4-3-----4-3-----|---3-0-----3-0-----3-0-----3-0---|
A|-----4-1-----4-1-----4-1-----4-1-|-------1-------1-------1-------1-|
E|---------------------------------|---------------------------------|
	Have		       cos I     	 know
    (cos I   knowknow rightnow)

E|---------------------------------|---------------------------------|
B|---------------------------------|---------------------------------|
G|-3-------3-------3-------3-------|-1-------1-------1-------1-------|
D|---3-0-----3-0-----3-0-----3-0---|---3-0-----3-0-----3-0-----3-0---|
A|-------1-------1-------1-------1-|-------1-------1-------1-------1-|
E|---------------------------------|---------------------------------|
   They’ll                 ne- ver 	 be   			 tu- ning	 

E|---------------------------------|---------------------------------|
B|---------------------------------|---------------------------------|
G|---------------------------------|-3-------3-------3-------3-------|
D|-4-3-----4-3-----4-3-----4-3-----|---3-0-----3-0-----3-0-----3-0---|
A|-----4-1-----4-1-----4-1-----4-1-|-------1-------1-------1-------1-|
E|---------------------------------|---------------------------------|
	In   		    to what we       know                      And 

Chorus:

E|---------------------------------|---------------------------------|
B|-4-------4-------4-------4-------|---------------------------------|
G|---3-0-----3-0-----3-0-----3-0---|-3-0-----3-0-----3-0-----3-0-----|
D|-------1-------1-------1-------1-|-----2-------2-------2-------2---|
A|---------------------------------|-------3-------3-------3-------3-|
E|---------------------------------|---------------------------------|   
   All 			I	    have 	      now

E|---------------------------------|---------------------------------|
B|---------------------------------|---------------------------------|
G|---------------------------------|-3-------3-------3-------3-------|
D|-1-0-----1-0-----1-0-----1-0-----|---3-0-----3-0-----3-0-----3-0---|
A|-----1-------1-------1-------1---|-------1-------1-------1-------1-|
E|-------3-------3-------3-------3-|---------------------------------|

	         is being here  withyou

Verse:

E|---------------------------------|---------------------------------|
B|---------------------------------|---------------------------------|
G|-3-------3-------3-------3-------|-1-------1-------1-------1-------|
D|---3-0-----3-0-----3-0-----3-0---|---3-0-----3-0-----3-0-----3-0---|
A|-------1-------1-------1-------1-|-------1-------1-------1-------1-|
E|---------------------------------|---------------------------------|
 							      Co- ver your fear

E|---------------------------------|---------------------------------|
B|---------------------------------|---------------------------------|
G|---------------------------------|-3-------3-------3-------3-------|
D|-4-3-----4-3-----4-3-----4-3-----|---3-0-----3-0-----3-0-----3-0---|
A|-----4-1-----4-1-----4-1-----4-1-|-------1-------1-------1-------1-|
E|---------------------------------|---------------------------------|
			  It’s all we		 know

E|---------------------------------|---------------------------------|
B|---------------------------------|---------------------------------|
G|-3-------3-------3-------3-------|-1-------1-------1-------1-------|
D|---3-0-----3-0-----3-0-----3-0---|---3-0-----3-0-----3-0-----3-0---|
A|-------1-------1-------1-------1-|-------1-------1-------1-------1-|
E|---------------------------------|---------------------------------|
 							      Co- ver your fear

E|---------------------------------|---------------------------------|
B|---------------------------------|---------------------------------|
G|---------------------------------|-3-------3-------3-------3-------|
D|-4-3-----4-3-----4-3-----4-3-----|---3-0-----3-0-----3-0-----3-0---|
A|-----4-1-----4-1-----4-1-----4-1-|-------1-------1-------1-------1-|
E|---------------------------------|---------------------------------|
			  It’s all we		 know                      And   	

Chorus:

E|---------------------------------|---------------------------------|
B|-4-------4-------4-------4-------|---------------------------------|
G|---3-0-----3-0-----3-0-----3-0---|-3-0-----3-0-----3-0-----3-0-----|
D|-------1-------1-------1-------1-|-----2-------2-------2-------2---|
A|---------------------------------|-------3-------3-------3-------3-|
E|---------------------------------|---------------------------------|   
   All 			I	    have 	      now

E|---------------------------------|---------------------------------|
B|---------------------------------|---------------------------------|
G|---------------------------------|-3-------3-------3-------3-------|
D|-1-0-----1-0-----1-0-----1-0-----|---3-0-----3-0-----3-0-----3-0---|
A|-----1-------1-------1-------1---|-------1-------1-------1-------1-|
E|-------3-------3-------3-------3-|---------------------------------|

	         is being here  withyou					And

E|---------------------------------|---------------------------------|
B|-4-------4-------4-------4-------|---------------------------------|
G|---3-0-----3-0-----3-0-----3-0---|-3-0-----3-0-----3-0-----3-0-----|
D|-------1-------1-------1-------1-|-----2-------2-------2-------2---|
A|---------------------------------|-------3-------3-------3-------3-|
E|---------------------------------|---------------------------------|	
   All 			I	    have 	      now

E|---------------------------------|
B|---------------------------------|
G|---------------------------------|
D|-1-0-----1-0-----1-0-----1-0-----|
A|-----1-------1-------1-------1---|
E|-------3-------3-------3-------3-|

	         is being here  with you					
            
Submit corrections

comments powered by Disqus
↑ Back to top | Kasabian Tabs for Seek And Destroy. Lyrics for acoustic guitar and electric guitar. 1 Tablatures and chords are parodies/interpretations of the original songs. You may use it for private study, scholarship, research or language learning purposes only