» » »

Kasabian, Processed Beats Bass tabs (ver.2)

Artists:  A B C D E F G H I J K L M N O P Q R S T U V W X Y Z # 

Processed Beats Bass tabs (ver.2)

Kasabian Tabs
 Rating:
4/5 (4 votes)
Processed Beats lessons Tabs too difficult? Try these video lessons and learn fast
                Band: Kasabian
Bassist: Chris Edwards

Listen to the song to get the right timing.

Intro/chorus:

G|---------------|
D|---------------|
A|--7-8-9-9-9-79-|
E|9--------------| x8

Verse:

G|---------|
D|---------|
A|9-9-9-79-|
E|---------|

G|---------------|
D|---------------|
A|--7-8-9-9-9-79-|
E|9--------------| x5 

(short pause)

G|---------|-----------------|---------|
D|---------|-----------------|---------|
A|9-9-9-79-|--7-8-9-9-9-9-79-|--7-8----|
E|---------|9----------------|9--------|

(no bass till 0:53)

G|-------------|
D|-------------|
A|7-8-9-9-9-79-|
E|-------------|

G|---------------|---------------|--
D|---------------|---------------|--
A|--7-8-9-9-9-79-|--7-8-9-9-9-79-|--
E|9--------------|9--------------|9-

G|---------|---------|
D|---------|---------|
A|9-9-9-97-|---------|
E|---------|9--------| x2

G|---------|---------|
D|---------|---------|
A|9-9-9-97-|--8-7----|
E|---------|9--------|

G|---------|
D|---------|
A|9-9-9-79-|
E|---------|

Chorus:

G|---------------|
D|---------------|
A|--7-8-9-9-9-79-|
E|9--------------| x7

Bridge:

G|-----------------|
D|9~-----------7~--|
A|----10~--9~------|
E|-----------------| x2

G|-----------------|
D|-----------------|
A|9~---------------|
E|-----------------|

(no bass till 1:52)

Chorus\outro:

G|---------|
D|---------|
A|9-9-9-79-|
E|---------|

G|---------------|
D|---------------|
A|--7-8-9-9-9-79-|
E|9--------------| x3

G|---------|
D|---------|
A|9-9-9-79-|
E|---------|

G|---------------|
D|---------------|
A|--7-8-9-9-9-79-|
E|9--------------| x19

G|---------|
D|---------|
A|--7-8----|
E|9--------|
            
Submit corrections

comments powered by Disqus
↑ Back to top | Kasabian Bass for Processed Beats. Lyrics for acoustic guitar and electric guitar. Tablatures and chords are parodies/interpretations of the original songs. You may use it for private study, scholarship, research or language learning purposes only