» » »

Kasabian, Pistols At Dawn Tabs (ver.1)

Artists:  A B C D E F G H I J K L M N O P Q R S T U V W X Y Z # 

Pistols At Dawn Tabs (ver.1)

Kasabian Tabs
 Rating:
4/5 (4 votes)
Pistols At Dawn lessons Tabs too difficult? Try these video lessons and learn fast
1
                -------------------------------------------------------------------------------
-------------------------------------------------------------------------------

Tuning: EGDGBe

Verse: Behind the smoke, behind the screen, astronaut in a limousine....



Chords:
e|--------------------------------------------------------------------------|
B|--------------------------------------------------------------------------|
G|--------------------------------------------------------------------------|
D|----10-10-10-8-10-10-10-8-------------------------------------------------|
A|----10-10-10-8-10-10-10-8-------------------------------------------------|
E|-----8-8--8--6--8-8--8--6-------------------------------------------------|

Occasional guitar lick:
e|--------------------------------------------------------------------------|
B|--------------------------------------------------------------------------|
G|--------------------------------------------------------------------------|
D|-------8-10-8-------------------------------------------------------------|
A|----10--------10----------------------------------------------------------|
E|--------------------------------------------------------------------------|
Bridge: D# C B C  F D# C B C x4

         D#       A#
        Yeah, oh yeah

 C                   D#                   F
Best laid plans can wait don't leave them now [or something]
                   G#         A#
It's aggravation, it's heavy duty!

Breakdown:x4
e|--------------------------------------------------------------------------|
B|--------------------------------------------------------------------------|
G|--------------------------------------------------------------------------|
D|--------------------------------------------------------------------------|
A|------8-8-11-8--8-11-8-6-8---8-8-8-6-6-6--6-5-1-3-------------------------|

Then:
e|--------------------------------------------------------------------------|
B|--------------------------------------------------------------------------|
G|--------------------------------------------------------------------------|
D|--------------------------------------------------------------------------|
A|--------------------------------------------------------------------------|
E|------8-9-10-11-8-9-10-11-8-9-10-11-8-9-10-11-----------------------------|

Also
e|--------------------------------------------------------------------------|
B|--------------------------------------------------------------------------|
G|--------------------------------------------------------------------------|
D|--------------------------------------------------------------------------|
A|------10-13-10-8--10------------------------------------------------------|
E|------8--11-8--6--8-------------------------------------------------------|

e|--16-16-15-13-13h15p13-12--12-13-15-18-18-16-15-15-15h16p15-13------------|
B|--------------------------------------------------------------------------|
G|--------------------------------------------------------------------------|
D|--------------------------------------------------------------------------|
A|--------------------------------------------------------------------------|
E|--------------------------------------------------------------------------|

Then: x4
e|-----16-15-13-13h15p13-12-------------------------------------------------|
B|--------------------------------------------------------------------------|
G|---------------------------------------------------------------------------
D|--------------------------------------------------------------------------|
A|------10-13-10-8--10------------------------------------------------------|
E|------8--11-8--6--8-------------------------------------------------------|

Then verse, bridge, chorus

e|--------------------------------------------------------------------------|
B|--------------------------------------------------------------------------|
G|--------------------------------------------------------------------------|
D|--------------------------------------------------------------------------|
A|--------------------------------------------------------------------------|
E|--------------------------------------------------------------------------|


************************************

| /   slide up
| \   slide down
| h   hammer-on
| p   pull-off
| ~   vibrato
| +   harmonic
| x   Mute note
| b   Bend
| pb  Pre-bend
| br  Bend release
| pbr Pre-bend release
| brb Bend release bend

************************************
            
Submit corrections

comments powered by Disqus
↑ Back to top | Kasabian Tabs for Pistols At Dawn. Lyrics for acoustic guitar and electric guitar. 1 Tablatures and chords are parodies/interpretations of the original songs. You may use it for private study, scholarship, research or language learning purposes only