» » »

Kasabian, Narcotic Farm Ii Tabs (ver.1)

Artists:  A B C D E F G H I J K L M N O P Q R S T U V W X Y Z # 

Narcotic Farm Ii Tabs (ver.1)

Kasabian Tabs
 Rating:
4/5 (4 votes)
Narcotic Farm Ii lessons Tabs too difficult? Try these video lessons and learn fast
                -------------------------------------------------------------------------------
                             NARCOTIC FARM II  -  Kasabian
------------------------------------------------------------------------------

Tuning: Standard

Main Riff

"Come down lady flying eight miles high..."
e|---------------------------------------------------------------------------|
B|---------------------------------------------------------------------------|
G|---------------------------------------------------------------------------|
D|----------0--------2--0--------0-------------------------------------------|
A|----2--2-----2--2--------2--2-----2--0--0--1--2----------------------------|
E|---------------------------------------------------------------------------|

Pre-Chorus

"At the narcotic farm..."

e|----3--3----2--2----7--7--7--7---------------------------------------------|
B|----3--3----2--2----7--7--7--7---------------------------------------------|
G|----4--4----2--2----7--7--7--7---------------------------------------------|
D|----5--5----4--4----9--9--9--9---------------------------------------------|
A|----5--5----4--4----9--9--9--9---------------------------------------------|
E|----3--3----2--2----7--7--7--7---------------------------------------------|

Chorus

"Hey, follow me down..."

e|----7--7--7--7--7--7--7--5--5----------------------------------------------|
B|----7--7--7--7--7--7--7--5--5----------------------------------------------|
G|----7--7--7--7--7--7--7--6--6----------------------------------------------|
D|----9--9--9--9--9--9--9--7--7----------------------------------------------|
A|----9--9--9--9--9--9--9--7--7----------------------------------------------|
E|----7--7--7--7--7--7--7--5--5--6-------------------------------------------|



************************************

| /   slide up
| \   slide down
| h   hammer-on
| p   pull-off
| ~   vibrato
| +   harmonic
| x   Mute note
| b   Bend
| pb  Pre-bend
| br  Bend release
| pbr Pre-bend release
| brb Bend release bend

************************************
            
Submit corrections

comments powered by Disqus
↑ Back to top | Kasabian Tabs for Narcotic Farm Ii. Lyrics for acoustic guitar and electric guitar. Tablatures and chords are parodies/interpretations of the original songs. You may use it for private study, scholarship, research or language learning purposes only