» » »

Kasabian, Last Trip (In Flight) Tabs (ver.1)

Artists:  A B C D E F G H I J K L M N O P Q R S T U V W X Y Z # 

Last Trip (In Flight) Tabs (ver.1)

Kasabian Tabs
 Rating:
4/5 (4 votes)
Last Trip (In Flight) lessons Tabs too difficult? Try these video lessons and learn fast
1
                Intro/Verse:

e--------------------------------|
B--------------------------------|
G--------------------------------|
D--------------------------------|
A-5(x24)/10(x24)/5(x24)/10(x24)--|
E--------------------------------| etc.

Riff 1:

e-------------------------|
B-------------------------|
G-------------------------|
D-------------------------|
A-----------------5-5-5-3-|
E-5-5-5-0-3-5-5-5---------|

Pre Chorus:

D Riff
e------------------|
B------------------|
G------------------|
D---------3-5-3----|
A-5(x12)---------5-|
E------------------|

G Riff
e-------------------|
B-------------------|
G-------------------|
D---------8-10-8----|
A-10(x12)--------10-|
E-------------------|

Chorus Riff:

e-----------|
B-3---------|
G-2---------|
D-0-3-5-3-0-|
A-----------|
E-----------| 
The D chord is played 
more than once before 
the 3-5-3-0 riff.
            
Submit corrections

comments powered by Disqus
↑ Back to top | Kasabian Tabs for Last Trip (In Flight). Lyrics for acoustic guitar and electric guitar. 1 Tablatures and chords are parodies/interpretations of the original songs. You may use it for private study, scholarship, research or language learning purposes only