» » »

Ladies And Gentlemen Bass tabs (ver.1)

Artists:  A B C D E F G H I J K L M N O P Q R S T U V W X Y Z # 

Ladies And Gentlemen Bass tabs (ver.1)

Kasabian
Rating:
0/5 (0 votes)

Hard to play? Try these video lessons and learn fast.
                Bassist: Chris Edwards
Tuning: Standard

Listen song carefully.

G|-------------|-------------|-------------|-------------|
D|-------------|-------------|-------------|-------------|
A|2-----------1|2-----------1|2---2-------1|2------------|
E|-----4-------|-----24------|-----4----24-|-----4----2\-|

G|-------------|-------------|-------------|-------------|
D|-------------|-------------|-------------|-------------|
A|2-----------1|2------------|-----4-------|---2/4-4-----|
E|-----4----24-|-----4----2--|0---------4--|0-0------2-4-|

G|-------------|-------------|-------------|-------------|----------------|
D|-------------|-------------|-------------|-------------|----------------|
A|2-----------1|2------------|-/4444-------|-/444--------|--------------4\|
E|-----4----24-|-----4----2--|0-----4-24444|0----24--2444|2-22-2--222222--|

G|-----------------------|    |-----------------------|
D|-----------------------|    |-----------------------|
A|2--22-2-2-2------------|    |2--22-2-2--------------|
E|------------4--44-4-4-2| x2 |----------2-4--44-4-4-2| x2 

G|-----------------------|---------------------|---------------------|
D|-----------------------|---------------------|---------------------|
A|2--22-2-2-2------------|2~------------------1|2~-------------------|    
E|------------4--44-4-4-2|-----------4~-----24-|-----------4~---2~---|

G|--------------------|--------------------|
D|--------------------|--------------------|
A|2--22--2-----------1|2--22--2------------|
E|----------4--44--24-|----------4~---2~---|

G|-------------------------------|-------------------------------|
D|----------------6-6-6-6-6-6-6-4|----------------6-6-6-6-6-6-6-6|
A|2-2-2-2/6-6-6-6----------------|2-2-2-2/6-6-6-6----------------|
E|-------------------------------|-------------------------------|

G|-----------------|------------------------|
D|-----------------|------------------------|
A|----------1-2/4/6|2--22-2-2-2-------------|
E|2--22-2-2--------|-------------4--44-4-4-2|

G|-----------------------|------------------------|
D|-----------------------|------------------------|
A|2--22-2-2-2------------|2--22-2-2-2------------1|
E|------------4--44-4-4-2|-------------4--44-2-4--|

G|-----------------------|------------------------|
D|-----------------------|------------------------|
A|2--22-2-2-2------------|2--22-2-2-2-------------|
E|------------4--44-4-4--|-------------4--44-4-4-2|

G|---------------|---------------|    |---------------|
D|---------------|---------------|    |---------------|
A|2-2-2-2-2-2-2-1|--------------1|    |2~-------------|
E|---------------|4-4-4-4-4-4-4--| x5 |---------------|

/  slide up
\  slide down
h  hammer-on
p  pull-off
~  let ring
            
Hard to play? Try these video lessons and learn fast. | Correct




comments powered by Disqus
↑ Back to top | Tablatures and chords are parodies/interpretations of the original songs. You may use it for private study, scholarship, research or language learning purposes only