» » »

Ketang Tabs (ver.1)

Artists:  A B C D E F G H I J K L M N O P Q R S T U V W X Y Z # 

Ketang Tabs (ver.1)

Kasabian
Rating:
0/5 (0 votes)

Tabs too difficult? Try these video lessons and learn fast.
                One of the B-sides from Kasabian's great single, Empire.  The guitar 
solo is either backwards, or full of delay.  I haven't figured it all 
out, but it's mainly in the A pentatonic scale.

Intro/Verse:

e----------------|
B----------------|
G-9-12-11-7-11-9-|
D-9-12-11-7-11-9-|
A-7-10-9--5-9--7-|
E----------------|

Chorus:
  
e---------------|
B---------------|
G-9-7-----9-7---|
D-9-7-7-5-9-7-7-|
A-7-5-7-5-7-5-7-|
E-----5-3-----5-|

Ending Chorus:

e------------------|
B------------------|
G-9-12-7--9-12-7---|
D-9-12-7--9-12-7-7-|
A-7-10-5--7-10-5-7-|
E----------------5-|
            
Tabs too difficult? Try these video lessons and learn fast.




comments powered by Disqus
↑ Back to top | Tablatures and chords are parodies/interpretations of the original songs. You may use it for private study, scholarship, research or language learning purposes only