» » »

Kasabian, Julie And The Mothman Bass tabs (ver.1)

Artists:  A B C D E F G H I J K L M N O P Q R S T U V W X Y Z # 

Julie And The Mothman Bass tabs (ver.1)

Kasabian Tabs
 Rating:
4/5 (4 votes)
Julie And The Mothman lessons Tabs too difficult? Try these video lessons and learn fast
1
                Drop D
G|----------------------6--|----------------------6--|
D|-------------------------|-------------------------|  
A|-6--6-6--6--6--6--6--6---|-6--6-6--6--6--6--6--6---|    
D|-------------------------|-------------------------|
(optional on bass)
0-0:50; 1:33-2:30; 3:28-4:53

Pre-chorus
G|-------------------------|-------------------------|
D|-------------------------|-------------------------|  
A|-6----11----9----14--13--|-6----11----9----14--13--|    
D|-------------------------|-------------------------|
0:50-1:04; 2:30-2:44

Chorus
G|-------------------------|---------------------------------|
D|-------------------------|---------------------------------|  
A|----4-6--9--9-9-9-9-8----|-11--11-11-11-11-9--8--9--8-6-4-6|    
D|-1-----------------------|---------------------------------|
1:04-1:33; 2:44-3:28; 4:53-5:39 (end)
            
Submit corrections

comments powered by Disqus
↑ Back to top | Kasabian Bass for Julie And The Mothman. Lyrics for acoustic guitar and electric guitar. 1 Tablatures and chords are parodies/interpretations of the original songs. You may use it for private study, scholarship, research or language learning purposes only