>
 >
Id 2

Id 2 Bass Tabs

Kasabian - Id 2 chords, tabs, tablatures, lyrics

Guitar lessons | Add/correct | Request | Top 50 tabs Artists:  A B C D E F G H I J K L M N O P Q R S T U V W X Y Z 0-9

Id 2 Bass Tabs – Kasabian

CD, Sheet music, Poster

Do you like Id 2? Share with your friends now
Bass TabsBass Tabs v2Bass Tabs v3
Band: Kasabian
Bassist: Chris Edwards
Tuning: Standard

[1:33] Main Riff:

G|-------------------------------|
D|-------------------------------|
A|7----7-7-7---7-7-7---777-75-755|
E|-------------------------------|

G|-------------------------------|
D|-------------------------------|
A|-------------------------------|
E|8----8-8-8---8-8-8---888-85-85-|

[1:44] Verse: (play it three times)

G|-------97-7-97--|    |-------------------------|
D|---------9------|    |-------------------------|
A|7-7--7----------|    |------/10----------------|
E|----------------| x2 |8-8--8------8-8--8-88-5--|

[2:25] Play main riff: x2

[2:56] Play verse: x2

[3:28] Play main riff: x2 (without 2 last notes on 2nd time)

[3:48] Ending:

G|------------16-16-16-16-14-14-14-12-12121212------|
D|14-14-14-14---------------------------------12-12-|
A|--------------------------------------------------|
E|--------------------------------------------------| x4

[4:20] There's no bass but You can play this for fun:

G|----------------------------------|
D|----------------------------------|
A|--------3~----------------3~------|
E|0~--------------0~----------------| 

/  slide up
\  slide down
h  hammer-on
p  pull-off
~  let ring





Comments


Popular Kasabian tabs & chords
Lsf 2 Bass Tabs
Secret Alphabets Bass Tabs
Thick As Thieves Bass Tabs
Pistols At Dawn Tabs
Reason Is Treason Tabs
Shoot The Runner 2 Tabs
Empire Ukulele
I Hear Voices Ukulele
Neon Noon Ukulele
Thick As Thieves Ukulele


Song lyrics



↑ Back to top | Tablatures and chords are parodies/interpretations of the original songs. You may use it for private study, scholarship, research or language learning purposes only
© 2014 AZChords.com Contact us | Privacy policy | DMCA | Add/correct tabs | Request tabs | Top 50 tabs