» » »

Kasabian, I.D Bass tabs (ver.1)

Artists:  A B C D E F G H I J K L M N O P Q R S T U V W X Y Z # 

I.D Bass tabs (ver.1)

Kasabian Tabs
Rating:
0/5 (0 votes)
I.D lessons Tabs too difficult? Try these video lessons and learn fast
                Bassist: Chris Edwards

/=slide
~= let ring

INTRO (1:33):

g ------------------------------------------|
d ------------------------------------------|
a -7--7-7--7-7--7-7-/-5---------------------|
E ---------------------8--8-8--8-8--8-8-/-5-|

VERSE:

"No one else is...."
g ------9-7-----------------9-7------------------------------|
d ----------9-10-9-7------------9-10-9-7---------------------|
a -7--7--------------7-7--7-----------------/10~---/10-------|
E ---------------------------------------8~------8-----/-8-5-|


g ------9-7-----------------9-7-------------------------------|
d ----------9-10-9-10------------9-10-9-12--------------------|
a -7--7--------------7-7--7-----------------/10~---/10--------|
E ----------------------------------------8~------8-----/-8-5-|

cHORUS:

"Music is my.....


.."my loove"

g ----------------------------------------------------|
d ----------------------------------------------------|
a -7--7-7--7-7--7-7-5-7-5-5---------------------------|x2
E -------------------------8--8-8--8-8--8-8-5-8-5-5---|


  "No one else is...."
g ------|
d ------|
a ------|
E -(7~)-|


  "No one else comes clean...."

g ------9-7-----------------9-7------------------------------|
d ----------9-10-9-7------------9-10-9-7---------------------|
a -7--7--------------7-7--7-----------------/10~---/10-------|
E ---------------------------------------8~------8-----/-8-5-|


g ------9-7-----------------9-7-------------------------------|
d ----------9-10-9-10------------9-10-9-12--------------------|
a -7--7--------------7-7--7-----------------/10~---/10--------|
E ----------------------------------------8~------8-----/-8-5-|

cHORUS:

"Music is my.....


.."my loove"

g ----------------------------------------------------|
d ----------------------------------------------------|
a -7--7-7--7-7--7-7-5-7-5-5---------------------------|x2
E -------------------------8--8-8--8-8--8-8-5-8-5-5---|


the end goes without bass (3:49)...but i like to keep playing along with
sumthin like this:

g --------------------------------------------|
d --------------------------------------------|
a -7-7-7-7-9-9-9-9-10-10-10-10-10-12-12-12----|
E --------------------------------------------|

g ---------------------------------------------|
d ---------------------------------------------|
a ---------------------------------------------|x2
E -8-8-8-8-12-12-12-12-14-14-14-14-14-15-15-15-|

(but thats just me =) ):

enjoy!!!


Kasabian's best!
            
Submit corrections

comments powered by Disqus
↑ Back to top | Kasabian Bass for I.D. Lyrics for acoustic guitar and electric guitar. Tablatures and chords are parodies/interpretations of the original songs. You may use it for private study, scholarship, research or language learning purposes only