» » »

Fire Tabs (ver.6)

Artists:  A B C D E F G H I J K L M N O P Q R S T U V W X Y Z # 

Fire Tabs (ver.6)

Kasabian
Rating:
0/5 (0 votes)

Hard to play? Try these video lessons and learn fast.
                FIRE!!!!!
Havin' looked at other tabs for this song, i have decided this is right,
using palm mutes for the verses an then lettin rip on the chorus.

first tab, so only doin BASIC stuff so you can work rest out for yaselfs an the timings.

cheers

danjax

intro/verse
e---------------------------------------------------------------------------|
b---------------------------------------------------------------------------|
g-5-5-5-5-5-5-5-5-5-5-8-8-8-8-3-5-5-5-5-5-5-5-5-5-5-5-8-8-8-8-3-5-5-5-5-5-5-|
d-5-5-5-5-5-5-5-5-5-5-8-8-8-8-3-5-5-5-5-5-5-5-5-5-5-5-8-8-8-8-3-5-5-5-5-5-5-|
a-3-3-3-3-3-3-3-3-3-3-6-6-6-6-1-3-3-3-3-3-3-3-3-3-3-3-6-6-6-6-1-3-3-3-3-3-3-|
E---------------------------------------------------------------------------|

chorus
e---------------------------------------------------------------------------|
b---------------------------------------------------------------------------|
g-5-5-5-5-5-10-10-10-8-8-8-8-8-8-8-8-8-3-3-3-5-5-5-5-5-5-5------------------|
d-5-5-5-5-5-10-10-10-8-8-8-8-8-8-8-8-8-3-3-3-5-5-5-5-5-5-5------------------|
a-3-3-3-3-3-8--8--8--6-6-6-6-6-6-6-6-6-1-1-1-3-3-3-3-3-3-3------------------|
E---------------------------------------------------------------------------|


2nd verse-chorus
e----------------------------------------------------------------------------|
b----------------------------------------------------------------------------|
g-5-5-5-5-5-5-5-5-5-5-8-8-8-8-3-5-5-5-5-5-8-8-8-8-3-5-5-5-5-10-8-8-3-3-3-5---|
d-5-5-5-5-5-5-5-5-5-5-8-8-8-8-3-5-5-5-5-5-6-6-6-6-3-5-5-5-5-10-8-8-3-3-3-5---|
a-3-3-3-3-3-3-3-3-3-3-6-6-6-6-1-3-3-3-3-3-6-6-6-6-1-3-3-3-3-8--6-6-1-1-1-3---|
E----------------------------------------------------------------------------|

e---------------------22222222-----------------------------------------------|
b---------------------22222222-----------------------------------------------|
g-5-5-5-5-10-8-8-3-3-3--------5-5-5-5-5-10-10-10-8-8-8-8-8-8-8-3-3-5-5-5-5-5-|
d-5-5-5-5-10-8-8-3-3-3--------5-5-5-5-5-10-10-10-8-8-8-8-8-8-8-3-3-5-5-5-5-5-|
a-3-3-3-3-8--6-6-1-1-1222222223-3-3-3-3-8--8--8--6-6-6-6-6-6-6-1-1-3-3-3-3-3-|
E---------------------33333333-----------------------------------------------|

listen to song for timings.
an so on an so forth.
other people have the solo part thing spot on with the 13th an 11th fret
cheers
first tab alert!
            
Hard to play? Try these video lessons and learn fast. | Correct




comments powered by Disqus
↑ Back to top | Tablatures and chords are parodies/interpretations of the original songs. You may use it for private study, scholarship, research or language learning purposes only